» » »

Falling In Reverse - Chemical Prisoner Tabs

Artists:  A B C D E F G H I J K L M N O P Q R S T U V W X Y Z # 

Chemical Prisoner Tabs

(ver. 1) Click to play this song!
Falling In Reverse
 Rating:
2.7/5 (26 votes)

 Chemical Prisoner  lessons Tabs too difficult? Try these video lessons and learn fast
 
                Tuning: Drop C

D|--------14v~---------------------------------14----16-14--15-11-12---11-----------------------------|
A|--12-11--------16-17-16-14-12-14-11-12~---16----14--------------------------------------------------|
F|-------------------------------------------------------------------12---12--------------------------|
C|----------------------------------------------------------------------------------------------------|
G|----------------------------------------------------------------------------------------------------|
C|----------------------------------------------------------------------------------------------------|
                                      Part 2
D|--------14v~------------------16-17-16-14~----------------------------------------------------------|
A|--12-11--------16-17-16-14-12--------------16-17-16-14----------------------------------------------|
F|-------------------------------------------------------16-15-13-------------------------------------|
C|----------------------------------------------------------------13-14-13-11------------11~----------|
G|----------------------------------------------------------------------------14-13-11-9--------------|
C|----------------------------------------------------------------------------------------------------|
                                      Part 3 until the sweep sounding part
D|----------------------------------------------------11----11-14---19t-14-11---11-14-18--|
A|-------------------------------------------------------12-------------------12----------|
F|-------------------------------11------11-16----11--------------------------------------|
C|------------9------9-13---9-13----9-13-------13-----------------------------------------|
G|----------9------9------9---------------------------------------------------------------|
C|--13-9-13-----13------------------------------------------------------------------------|
                                      Part 4: Really fast
D|--21t-14-11----11-14-23t---16-11-7---7-11-14~---24t-9-6-23t-9-6-21t-9-6-23t-9-6---------------------|
A|------------12---------------------9----------------------------------------------------------------|
F|----------------------------------------------------------------------------------------------------|
C|----------------------------------------------------------------------------------------------------|
G|----------------------------------------------------------------------------------------------------|
C|----------------------------------------------------------------------------------------------------|
                                      Part 5
D|--------------------------------------------------------------------------------9-11-12-9-11-12-15v-------|
A|----12---11-----12---14---12---11---12+--------------------------9-11-12-9-11-12--------------------------|
F|------------------------------------------------------6-8-9-6-8-9-----------------------------------------|
C|--9----9----9-9----9----9----9----9--------6-8-9-6-8-9----------------------------------------------------|
G|----------------------------------------------------------------------------------------------------------|
C|----------------------------------------------------------------------------------------------------------|            
Submit corrections


        Chemical Prisoner  lessons Hard to play? Try these video lessons and learn fast Chemical Prisoner  lessons
        
↑ Back to top | Tablatures and chords for acoustic guitar and electric guitar, ukulele, drums are parodies/interpretations of the original songs. You may use it for private study, scholarship, research or language learning purposes only