» » »

Falling In Reverse - Chemical Prisoner Tabs

Artists:  A B C D E F G H I J K L M N O P Q R S T U V W X Y Z # 

Chemical Prisoner Tabs

(ver. 2) Click to play this song!
Falling In Reverse
 Rating:
4.3/5 (19 votes)

 Chemical Prisoner lessons Tabs too difficult? Try these video lessons and learn fast
 
                [Intro]
e|------------------------0----------------------------------------------------|
B|-2--2-0------------0-2----0---2-2-2-0------------2-2-2-0-------2-2-2-0-------|
G|--------2-2-2-(x3)--------------------2-2-2-(x2)---------2-2-2---------2-2-2-|
D|---------------------------------------------------------------------------4-|
A|-------------------------------------------------4-4-4-2-0-0-0-4-4-4-2-0-0-5-|
E|-----------------------------------------------------------------------------|

e|---------------------------------------------------------------------------|
B|--------------------------2------------------------------------------------|
G|-2-2-2-1------------2--5--1--1---------------------------------------------|
D|-4-4-4-2-4-4-4------2--4--2--2---------------------------------------------|
A|-4-4-4-2-5-5-5------4--5-----4---------------------------------------------|
E|---------5-5-5-(x3)--------------------------------------------------------| (x2)

[Verse]
Section A
e|---------------------------------------------------------------------------|
B|---------------------------------------------------------------------------|
G|---------------------------------------------------------------------------|
D|-2-2---2-2-2-1------------------[1--1--1--2]-------------------------------|
A|-4-4---4-4-4-2------4-4---4-4-4-[2--2--2--4]-------------------------------|
E|--------------------5-5---5-5-5--------------------------------------------|

Section B
e|---------------------------------------------------------------------------|
B|---------------------------------------------------------------------------|
G|--------------------------------2-1-1--------------------------------------|
D|---------1-1-2-2------------1-1-2------------------------------------------|
A|-4-4-4-4----------------4-4------------------------------------------------|
E|-5---------------(x3)---5--------------------------------------------------|

Section C (awkward rhythm, listen to song a load of times - sorry)
e|---------------------------------------------------------------------------|
B|---------------------------------------------------------------------------|
G|---------------------------------------------------------------------------|
D|-1--1-1-1--1-1-1-2---------------------------------------------------------|
A|-2--2-2-2--2-2-2-4---------------------------------------------------------|
E|---------------------------------------------------------------------------|

Verses have Section A (inc. sq brackets), Section A (exc. sq brackets, replace with Section C), Section B
Then one more of Section A :)

[Chorus]
Hold the D & G strings
e|---------------------------------------------------------------------------|
B|-5-5-5-4-2-2-2-2--4-4-4-4-4-4-4-4--5-5-5-4-2-2-2-2--2-2-2-2-2-2-2-2--------|
G|-2----------------4----------------2----------------2----------------------|
D|-2----------------4----------------2----------------2----------------------|
A|---------------------------------------------------------------------------|
E|---------------------------------------------------------------------------|

e|------------------------------------------------------------0-0-0-0--------|
B|-5-5-5-4-2-2-2-2--4-4-4-4-4-4-4-4--5-5-5-4-2-2-2-2--4-4-4-4-2-2-2-2--------|
G|-2-------2-2-2-2--4-4-4-4----------2----------------4-4-4-4-1--------------|
D|-2-------2--------4----------------2----------------4----------------------|
A|---------------------------------------------------------------------------|
E|---------------------------------------------------------------------------|

e|-----------------------------------0-0-0-0-0-0-0-0--0-0-0-0-0-0-0-0--------|
B|-2-2-2-2-2-2-2-2--2-2-2-2-2-2-2-2--2----------------2----------------------|
G|-2----------------2----------------1----------------1----------------------|
D|-2----------------2--------------------------------------------------------|
A|---------------------------------------------------------------------------|
E|---------------------------------------------------------------------------|

e|------------------------------------------------------------0-0-0-0--------|
B|-2-2-2-2-2-2-2-2--2-2-2-2-2-2-2-2--2-2-2-2-4-4-4-4--4-4-4-4-2--------------|
G|-2----------------2----------------2-------4--------4-------1--------------|
D|-2----------------2----------------2-------4--------4----------------------|
A|---------------------------------------------------------------------------|
E|---------------------------------------------------------------------------|

[Solo]
Again, listen to the song sawwy. I'll try and tab the faster bits some other time.
e|-----0-------------------0---2-0--1----------------------------------------|
B|--------2----2-0---0---2---0--------2-3---2--------------------------------|
G|-2-1------------2---2------------------------------------------------------|
D|----------------------------------------3---3------------------------------|
A|---------------------------------------------------------------------------|
E|---------------------------------------------------------------------------|

e|-----0-------------2-2-0--2-0----------------------------1^----------------|
B|--------2----2-0---------------2-----F-----TF-----T------------------------|
G|-2-1------------2---------------------A---I--A---I-------------------------|
D|---------------------------------------S-B----S-B--------------------------|
A|----------------------------------------T------T---------------------------|
E|---------------------------------------------------------------------------|

[Bridge]
e|---------------------------------------------------------------------------|
B|---------------------------------------------------------------------------|
G|------------------1-1-1-1-1-1-1-1------------------------------------------|
D|------------------2--------------------------------------------------------|
A|-0-0-0-0-0-0-0-0-----------------------------------------------------------|
E|-2---------------------------------2-2-2-2-2-2-2-2--2-2-2-2-2-2-2-2--------| (x3)
PM ..........................................................................

e|---------------------------------------------------------------------------|
B|---------------------------------------------------------------------------|
G|------------------1-1-1-1-1-1-1-1------------------------------------------|
D|------------------2--------------------------------------------------------|
A|-0-0-0-0-0-0-0-0-------------------2---------------------------------------|
E|-2---------------------------------0---------------------------------------|
PM ................................

[Outro]
e|---------------------------------------------------------------------------|
B|--------------------------2------------------------------------------------|
G|-2-2-2-1------------2--5--1--1---------------------------------------------|
D|-4-4-4-3-4-4-4------2--4--1--2---------------------------------------------|
A|-4-4-4-3-5-5-5------4--5-----4---------------------------------------------|
E|---------5-5-5-(x3)--------------------------------------------------------| (x4)

e|------------------------0--------------------------------------------------|
B|-2--2-0------------0-2----0---2-2-2-0--------------------------------------|
G|--------2-2-2-(x3)--------------------2-2-2--------------------------------|
D|---------------------------------------------------------------------------|
A|---------------------------------------------------------------------------|
E|---------------------------------------------------------------------------| (x2)

[Ending]
e|---------------------------------------------------------------------------|
B|---------------------------------------------------------------------------|
G|-2-------------------------------------------------------------------------|
D|---------------------------------------------------------------------------|
A|---------------------------------------------------------------------------|
E|---------------------------------------------------------------------------|            
Submit corrections


        Chemical Prisoner lessons Hard to play? Try these video lessons and learn fast Chemical Prisoner lessons
        
↑ Back to top | Tablatures and chords for acoustic guitar and electric guitar, ukulele, drums are parodies/interpretations of the original songs. You may use it for private study, scholarship, research or language learning purposes only