» » »

Eyes Set To Kill - Reach Tabs

Artists:  A B C D E F G H I J K L M N O P Q R S T U V W X Y Z # 

Reach Tabs

(ver. 1) Click to play this song!
Eyes Set To Kill
 Rating:
4/5 (4 votes)

 Reach lessons Tabs too difficult? Try these video lessons and learn fast
 
                (Intro)
Eyes Set to Kill - Reach (Intro)

Tuning: Drop D

h: hammer on
p: pull of
s: slide
b: bend

Guitar 1
|----------------------17----------------------------------------------------------|
|-15---17----------------19-17-----------------------------------------------------|
|------------18-19-18-----------19—18h19p18---14h16--------------------------------|
|----------------------------------------------------------------------------------|
|----------------------------------------------------------------------------------|
|----------------------------------------------------------------------------------|

|----------------------17-------------------------|
|-15---17----------------19-17--------------------|
|------------18-19-18-----------19—18h19p18---14--|
|-------------------------------------------------|
|-------------------------------------------------|


|-----------------------------------------------------------------------|
|-s19----15-17--14-15--15-17--14-15-----s19----15-17--14-15--15-17--b14-|
|-----------------------------------------------------------------------|
|-----------------------------------------------------------------------|
|-----------------------------------------------------------------------|
Guitar 2
|------------------------------------------------------------------------------------------------|
|------------------------------------------------------------------------------------------------|
|-------------------------------------------7----------------------------------------------------|
|----9------------------5-------------------7----------------7---777--777--778-------------------|
|----9------------------5-------------------5----------------7---777--777--778-------------------|
|----9------------------5------------------------------------7---777--777--778-------------------|
            
Submit corrections


        Reach lessons Hard to play? Try these video lessons and learn fast Reach lessons
        
↑ Back to top | Tablatures and chords for acoustic guitar and electric guitar, ukulele, drums are parodies/interpretations of the original songs. You may use it for private study, scholarship, research or language learning purposes only