» » »

Eyes Set To Kill - Liar In The Glass Tabs

Artists:  A B C D E F G H I J K L M N O P Q R S T U V W X Y Z # 

Liar In The Glass Tabs

(ver. 1) Click to play this song!
Eyes Set To Kill
 Rating:
4/5 (10 votes)

 Liar In The Glass lessons Tabs too difficult? Try these video lessons and learn fast
 
                Hey! well no one was tabbing this song out and i think its the best eyes set to kill
so i decided to do it! I know its not 100% correct but i gave it a shot and this what i've
up with. I didnt do the solo yet and the outro is tricky but im working on it and ill 
it up later if i do come up with it. Untill then im asking for everyones help to tab
entire song out perfectly. So please help me and everyone out. This is my first real tab 
feedback is greatly appreciated! thanks and enjoy :)

Drop D Tuning

0:00 - Both Guitars

e|----------------------------------------------------------------------------------|
B|----------------------------------------------------------------------------------|
G|----------------------------------------------------------------------------------|
D|----------------------------------------------------------------------------------|
A|-0-----5-----7-----8------10-------12--------13(H)15------------------------------|
D|-0--0-----0-----0-----0--------0--------0-----------------------------------------|
      .     .     .     .        .        .

    > x4

e|----------------------------------------------------------------------------------|
B|----------------------------------------------------------------------------------|
G|----------------------------------------------------------------------------------|
D|----------------------------------------------------------------------------------|
A|-8-888888---7--777--7(H)8(P)7-----------------------------------------------------|
D|-8-888888---7--777--------------10(P)7--------------------------------------------|
     ......      ...

0:22 - Guitar 2

e|------------------------------|
B|------------------------------|
G|------------------------------|
D|------------------------------|
A|---000--000------000--0-------|
D|---000--000------000--0-------|
     ...  ...      ...  .


0:23 - Guitar 1

e|---1-----0-------1-----0-----3----3----3-------1-----0-----3-----1-----0-------1-----0-----3----3-----3----------|
B|-----3-----3---3---3-----3-----2----2----2---2---3-----3-----3-----3-----3---2---3-----3-----3----3-----3---3----|
G|-------2-----2-------2-----2-----2----2----2-------2-----2-----2-----2-----2-------2-----2-----2----2-----2------|

play this once
A|-----------------------------------------------------------------------------------------------------------------|
D|-----------------------------------------------------------------------------------------------------------------|


e|---1-----0-----3-----1-----0--------1-----0-----3-----3-----3-----------|
B|-----3-----3-----3-----3-----3---3----3-----3-----3-----3-----3---3-----|
G|-------2-----2-----2-----2-----2--------2-----2-----2-----2-----2-------|
D|------------------------------------------------------------------------| then this x6
A|------------------------------------------------------------------------|
D|------------------------------------------------------------------------|

0:42 - Guitar 2                       0:52   and    1:02

e|-----------------------------------|---------------------------|
B|-----------------------------------|---------------------------|     1stpart - x4
G|-----------------------------------|---------------------------|     2ndpart - 2nd and
time
D|-----------------------------------|----------7----------------|
A|---000--000--00----888--777--77----|------7-8---8--7(H)8(P)7---|
D|---000--000--00----888--777--77----|---0-----------------------|
     ...  ...  ..    ...  ...  ..        .


1:04 - Guitar 1

e|--------------------------------------------------------------------|
B|--------------------------------------------------------------------|
G|--------------------------------------------------------------------|  x2
D|------------------------------------------------------~7~-----------|
A|---------10-----7(H)8------10------7(H)8-------7(H)8----------------|
D|---0--0------0----------0------0-----------0------------------------|
     .  .      .          .      .           .


e|--------------------------------------------------------------------|
B|--------------------------------------------------------------------|
G|--------------------------------------------------------------------|  x1
D|------------------------------------------------------~7~-----------|
A|---------10-----7(H)8------10------7(H)8-------7(H)8----------------|
D|---7--7------7----------7------7-----------7------------------------|
     .  .      .          .      .           .


e|--------------------------------------------------------------------|
B|--------------------------------------------------------------------|
G|--------------------------------------------------------------------|  x1
D|--------------------------------------------------------------------|
A|---------10-----7(H)8------10------7(H)8-------7(H)8--7--5--4-------|
D|---7--7------7----------7------7-----------7------------------------|
     .  .      .          .      .           .

1:04 - Guitar 2

e|--------------------------------------------------|
B|--------------------------------------------------|
G|--------------------------------------------------|    x1 then play guitar 1's part
D|---8------------8--------------0-------------0----|
A|---8------------8--------------0-------------0----|
D|---8------------8--------------0-------------0----|

1:25 - Guitar 1

e|----------------------------------------------------------------------------------------|
B|----------------------------------------------------------------------------------------|
G|---12-12-12-12-12---10-10---10-10---10-10-10-10---9-9-9-9-9---7-7--7-7---6-6-6-6--------|
D|----x--x--x--x--x----x--x----x--x----x--x--x--x---x-x-x-x-x---x-x--x-x---x-x-x-x--------|
A|---10-10-10-10-10----8--8----8--8----8--8--7--7---7-7-7-7-7---5-5--5-5---4-4-4-4--------|
D|----------------------------------------------------------------------------------------|


                     > x2

e|---------------------------------------------------------------------------------------------------|
B|---------------------------------------------------------------------------------------------------|
G|---12-12-12-12-12---10-10---10-10---10-10-10-10---12-12-12-12-12---14-14---14-14---14-14-14-14-----|
D|----x--x--x--x--x----x--x----x--x----x--x--x--x----x--x--x--x--x----x--x----x--x----x--x--x--x-----|
A|---10-10-10-10-10----8--8----8--8----8--8--8--8---10-10-10-10-10---12-12---12-12---12-12-12-12-----|
D|---------------------------------------------------------------------------------------------------|

1:25 - Guitar 2

e|---------------------------------------------------------------------------------|
B|---------------------------------------------------------------------------------|
G|---------------------------------------------------------------------------------|
D|---8888888888888888--0000000000000000--8888888888888888--0000000077777777--8~----|
  x2
A|---8888888888888888--0000000000000000--8888888888888888--0000000077777777--8~----|
D|---8888888888888888--0000000000000000--8888888888888888--0000000077777777--8~----|


1:45 - Guitar 1

e|---------------------------------|
B|---------------------------------|
G|---------------------------------|
D|----------7--------7/8\7---------|  let it ring
A|-------8--------8----------------|
D|----8--------8-------------------|


1:51 - Guitar 1 & 2                   1:55  &  2:05           2:00  &  2:10

e|-----------------------------------|-----------------------|---------------------------|

    1stpart - x4

    2ndpart - 2nd and 4th time
D|-----------------------------------|----------7---(7)------|----------7----------------|
A|---000--000--00----888--777--77----|------7-8---8----------|------7-8---8--7(H)8(P)7---|
D|---000--000--00----888--777--77----|---0-------------------|---0-----------------------|
     ...  ...  ..    ...  ...  ..        .                       .


2:12 - Guitar 1

e|---------------------------------------------------------------------------------|
B|---------------------------------------------------------------------------------|
G|---10-8-7--------10-8-7-----------------10-8-7--------10-8-7---------------------|
D|----------10-8-7--------10-8-7-8-7-5-----------10-8-7--------10-8-7-8-7-5--------|
A|-------------------------------------8------------------------------------8------|
D|---------------------------------------------------------------------------------|


     > x2

e|---------------------------------------------------------------------------------|
B|---------------------------------------------------------------------------------|
G|-----------------------------------7-9-10----------------------------------------|
D|-------------7-8------------7-8-10------------------7-8-----------7-8-7----------|
A|------7-8-10---------7-8-10------------------7-8-10--------7-8-10-------10-8-5---|
D|---0--------------0------------------------0-------------0-----------------------|
     .              .                        .             .

2:12 - Guitar 2

e|-------------------------|
B|-------------------------|
G|-------------------------|
D|---8-----8-----0-----7---|
A|---8-----8-----0-----7---|
D|---8-----8-----0-----7---|

2:32 - Guitar 1 & 2

e|----------------------------------------|
B|----------------------------------------|
G|----------------------------------------|
D|---8888888888888888--0000000000000000---|        x2
A|---8888888888888888--0000000000000000---|
D|---8888888888888888--0000000000000000---|
            
Submit corrections


        Liar In The Glass lessons Hard to play? Try these video lessons and learn fast Liar In The Glass lessons
        
↑ Back to top | Tablatures and chords for acoustic guitar and electric guitar, ukulele, drums are parodies/interpretations of the original songs. You may use it for private study, scholarship, research or language learning purposes only