» » »

Eyes Set To Kill - Heights Tabs

Artists:  A B C D E F G H I J K L M N O P Q R S T U V W X Y Z # 

Heights Tabs

(ver. 1) Click to play this song!
Eyes Set To Kill
 Rating:
4/5 (5 votes)

 Heights lessons Tabs too difficult? Try these video lessons and learn fast
 
                Eyes set to kill- Heights
Tuning- Drop C

this is a fairly easy song and shouldn't take you more then an hour to get down, if you 

have fun
UPDADE: thanks to Couldxkareless for the lead part

Verse 1-both guitars
|---------------------------------|
|---------------------------------|
|---------------------------------| 2x
|-00----00-----8888--5555---------|
|-00----00-----8888--5555---------|
|-00----00-----8888--5555---------|
PM..    ..     ...   ...

part 2 of verse-both guitars
|--------------------------------------------|
|--------------------------------------------|
|--------------------------------------------|
|--------------------------------------------|
|----8p0-7p0-5p0-------8p0-7p0-5p0----8888---|
|00----------------0------------------8888---|
 Palm mute whole Riff

|-----------|
|-----------|
|-----------|
|-8888—5555-|
|-8888—5555-|
|-8888—5555-|
PM Riff

pre chorus
|-----------------------------------------|
|-----------------------------------------|
|-----------------------------------------|
|--888888888888888-5—-8888887000000-------|
|--888888888888888-5—-8888887000000-------|
|--888888888888888-5--8888887000000-------|
 PM                          ......
|---------------------------------------|
|---------------------------------------|
|---------------------------------------|
|--888888888888888-5--8888888877777777--|
|--888888888888888-5--8888888877777777--|
|--888888888888888-5--8888888877777777--|

Chorus-Guitar 1
|---------------------------------------------------|
|--------------------------(10s)--------------------|
|---------------------------------------------------|
|--00000000-33333333-1010101010101010-888888888-----| 2x
|--00000000-33333333-1010101010101010-888888888-----|
|--00000000-33333333-1010101010101010-888888888-----|

Guitar 2

|-----------------------------------|
|-----------------------------------|
|-5h7-------------------------------|
|----5h7p3h5-0-3-6-5-3-0------------|
|-----------------------------------|
|-----------------------------------|

Second verse
|---------------------------------|
|---------------------------------|
|---------------------------------| 2x
|-00----00-----8888--5555---------|
|-00----00-----8888--5555---------|
|-00----00-----8888--5555---------|
PM..    ..     ...   ...

|--------------------------------------------|
|--------------------------------------------|
|--------------------------------------------|
|--------------------------------------------|
|----8p0-7p0-5p0-------8p0-7p0-5p0----8888---|
|00----------------0------------------8888---|
 Palm mute whole Riff

|-----------|
|-----------|
|-----------|
|-8888—5555-|
|-8888—5555-|
|-8888—5555-|
PM riff

Guitar 2 plays this whole second chorus
|----------------------------------------------------------|
|----------------------------------------------------------|
|----------------------------------------------------------|
|----------------------------------------------------------|
|12121212121212121212121212-131313131313131313131313131313-|
|----------------------------------------------------------|

Repeat pre chorus
Then chorus

breakdown part one- guitar 1
pay attention to the timing
|----------------------|
|----------------------|
|--------------------7-|
|------------------6---|
|----------------------|
|-0000000000000-6p0----|
  .............

breakdown part two
|-------------------------------------------------------------|
|-------------------------------------------------------------|
|-77777777-1414141414141414-1717171717171717-1414141414141414-|
|-------------------------------------------------------------|
|-55555555-1212121212121212-1515151515151515-1212121212121212-|
|-------------------------------------------------------------|

Repeat pre chorus
Then chorus

Outro- guitar 1
|-------------------------------------|
|-------------------------------------|
|-------------------------------------|
|--00--------00--------00---------00--|
|--00--------00--------00---------00--|
|--00--------00--------00---------00--|

Guitar 2 plays the lead from the chorus
That’s it, please rate and comment
            
Submit corrections


        Heights lessons Hard to play? Try these video lessons and learn fast Heights lessons
        
↑ Back to top | Tablatures and chords for acoustic guitar and electric guitar, ukulele, drums are parodies/interpretations of the original songs. You may use it for private study, scholarship, research or language learning purposes only