» » »

Everything Everything - Kemosabe Tabs

Artists:  A B C D E F G H I J K L M N O P Q R S T U V W X Y Z # 

Kemosabe Tabs

(ver. 1) Click to play this song!
Everything Everything
 Rating:
4/5 (4 votes)

 Kemosabe lessons Tabs too difficult? Try these video lessons and learn fast
 
                -------------------------------------------------------------------------------
-------------------------------------------------------------------------------
Tuning: Standard

VERSE
e|---------------------------------------------------------------------------|
B|---------------------------------------------------------------------------|
G|---------------------------------------------------------------------------|
D|---------------------------------------------------------------------------|
A|---------------------------------------------------------------------------|
E|---------------------------------------------------------------------------|

e|---------------------------------------------------------------------------|
B|---------------------------------------------------------------------------|
G|---------------------------------------------------------------------------|
D|---------------------------------------------------------------------------|
A|---------------------------------------------------------------------------|
E|---------------------------------------------------------------------------|

e|---------------------------------------------------------------------------------|  }
B|---------------------------------------------------------------------------------|  }
G|---------------------------------------------------------------------------------|  }
D|----------------------------------------------------11-10------------------------|  }
A|-----------------------4-3--------------------------------11-11-11-11-8-11-11-11-|  }
E|-6-6----6-6-1-1-1-3-4------4-4-4-4-1-4-4-4-6-6-4-4-------------------------------|  }
                                                                                      } x2
e|--------------|                                                                     }
B|--------------|                                                                     }
G|--------------|                                                                     }
D|--------------|                                                                     }
A|-13-13-11-11--|                                                                     }
E|--------------|                                                                     }
  
CHORUS
e|-13-13-13-13-13-13-13-13-12-12-12-12-12-12-12------------------------------|  }
B|-------------------------------------------------13-13-13-13-13-13-13-13---|  }
G|---------------------------------------------------------------------------|  }
D|---------------------------------------------------------------------------|  }
A|---------------------------------------------------------------------------|  }
E|---------------------------------------------------------------------------|  }
                                                                                } x4
e|------------------------|                                                     }
B|-16-16-16-16-16-16-16---|                                                     }
G|------------------------|                                                     }
D|------------------------|                                                     }
A|------------------------|                                                     }
E|------------------------|                                                     }

VERSE 2
e|---------------------------------------------------------------------------|
B|---------------------------------------------------------------------------|
G|---------------------------------------------------------------------------|
D|---------------------------------------------------------------------------|
A|---------------------------------------------------------------------------|
E|---------------------------------------------------------------------------|

e|---------------------------------------------------------------------------|
B|---------------------------------------------------------------------------|
G|---------------------------------------------------------------------------|
D|---------------------------------------------------------------------------|
A|---------------------------------------------------------------------------|
E|---------------------------------------------------------------------------|

e|---------------------------------------------------------------------------------|  }
B|---------------------------------------------------------------------------------|  }
G|---------------------------------------------------------------------------------|  }
D|----------------------------------------------------11-10------------------------|  }
A|-----------------------4-3--------------------------------11-11-11-11-8-11-11-11-|  }
E|-6-6----6-6-1-1-1-3-4------4-4-4-4-1-4-4-4-6-6-4-4-------------------------------|  }
                                                                                      } x2
e|--------------|                                                                     }
B|--------------|                                                                     }
G|--------------|                                                                     }
D|--------------|                                                                     }
A|-13-13-11-11--|                                                                     }
E|--------------|                                                                     }
  
CHORUS 2
e|-13-13-13-13-13-13-13-13-12-12-12-12-12-12-12------------------------------|  }
B|-------------------------------------------------13-13-13-13-13-13-13-13---|  }
G|---------------------------------------------------------------------------|  }
D|---------------------------------------------------------------------------|  }
A|---------------------------------------------------------------------------|  }
E|---------------------------------------------------------------------------|  }
                                                                                } x4
e|------------------------|                                                     }
B|-16-16-16-16-16-16-16---|                                                     }
G|------------------------|                                                     }
D|------------------------|                                                     }
A|------------------------|                                                     }
E|------------------------|                                                     }

BRIDGE
e|------------------------------------------------------------------------------|
B|------------------------------------------------------------------------------|
G|-20-20-20-20-20-20-20-20-19-19-19-19-19-19-19-19-17-17-17-17-17-17-17-17------|
D|------------------------------------------------------------------------------|
A|------------------------------------------------------------------------------|
E|------------------------------------------------------------------------------|

e|--------------------------------------------------------------------------------|
B|--------------------------------------------------------------------------------|
G|-15-15-15-15-15-15-15-15-15/17-17-17-17-17\15-15-15-15-15/17-17-17-17-17\15-----|
D|--------------------------------------------------------------------------------|
A|--------------------------------------------------------------------------------|
E|--------------------------------------------------------------------------------|

e|-----------|
B|-----------|
G|-15-15-15--|
D|-----------|
A|-----------|
E|-----------|

e|------------------------------------------------------------------------------------|
B|------------------------------------------------------------------------------------|
G|-20-22-22-19-20-20-17-19-19-15-17-17-15/17-17-17-17-17\15-15-15-15-15/17-17-17------|
D|------------------------------------------------------------------------------------|
A|------------------------------------------------------------------------------------|
E|------------------------------------------------------------------------------------|

e|--------------------|
B|--------------------|
G|-17-17\15-15-15-15--|
D|--------------------|
A|--------------------|
E|--------------------|


CHORUS 3
e|-13-13-13-13-13-13-13-13-12-12-12-12-12-12-12------------------------------|  }
B|-------------------------------------------------13-13-13-13-13-13-13-13---|  }
G|---------------------------------------------------------------------------|  }
D|---------------------------------------------------------------------------|  }
A|---------------------------------------------------------------------------|  }
E|---------------------------------------------------------------------------|  }
                                                                                } x4
e|------------------------|                                                     }
B|-16-16-16-16-16-16-16---|                                                     }
G|------------------------|                                                     }
D|------------------------|                                                     }
A|------------------------|                                                     }
E|------------------------|                                                     }

CHORUS BREAK

e|---------------------------------------------------------------------------|
B|---------------------------------------------------------------------------|
G|---------------------------------------------------------------------------|
D|---------------------------------------------------------------------------|
A|---------------------------------------------------------------------------|
E|---------------------------------------------------------------------------|


CHORUS 4/OUTRO
e|-13-13-13-13-13-13-13-13-12-12-12-12-12-12-12------------------------------|  }
B|-------------------------------------------------13-13-13-13-13-13-13-13---|  }
G|---------------------------------------------------------------------------|  }
D|---------------------------------------------------------------------------|  }
A|---------------------------------------------------------------------------|  }
E|---------------------------------------------------------------------------|  }
                                                                                } x4
e|------------------------|                                                     }
B|-16-16-16-16-16-16-16---|                                                     }
G|------------------------|                                                     }
D|------------------------|                                                     }
A|------------------------|                                                     }
E|------------------------|                                                     }

PLEASE RATE THE TAB, THANKS FOR READING AND ENJOY!
            
Submit corrections


        Kemosabe lessons Hard to play? Try these video lessons and learn fast Kemosabe lessons
        
↑ Back to top | Tablatures and chords for acoustic guitar and electric guitar, ukulele, drums are parodies/interpretations of the original songs. You may use it for private study, scholarship, research or language learning purposes only