Home » E » Everyday Sunday »

Everyday Sunday - Find Me Tonight Bass

Artists:  A B C D E F G H I J K L M N O P Q R S T U V W X Y Z # 

Find Me Tonight Bass

(ver. 1) Click to play this song!
Everyday Sunday
 Rating:
4.2/5 (5 votes)
                FIND ME TONIGHT – EVERYDAY SUNDAY
BASS
1ST VERSE:
G|--------------------------------------------------------------------|
D|--------------------------------------------------------------------|
A|--------------------------------------------------------------------|
D|-8--9--11--16-15-8--9--11-4-8--9--11--16-15-8--9--11----------------|

CHORUS:
G|----------------------------------------------------------------------| x2
D|----------------------------------------------------------------------|
A|-------------------22-22-22-22-2--2-66-66-66-66-6--6-22-22-22-22-2--2-|
D|-44-44-44-44-4--4-----------------------------------------------------|

2ND VERSE:
G|-----------------------------------------------|
D|-----------------------------------------------|
A|-----------------------------------------------|
D|-8--9--11--16-15-8--9--11-4-8--9--11--16-15-8--|


G|--------------------------------|
D|--------------------------------|
A|--------------------------------|
D|-9--11-4-8--9--11--16-15-8-9-11-|


CHORUS:                                                                  x2
G|-------------------------------------------------------------------------|
D|-------------------------------------------------------------------------|
A|-----------------22-22-22-22-2---2---66-66-66-66-6--6---22-22-22-22-2--2-|
D|-44-44-44-44-4-4---------------------------------------------------------|

BRIDGE:                                                                   x3
G|-------------------------------------------------------------------------|
D|-------------------------------------------------------------------------|
A|-22-22-22-22-2--2--11-11-11-11-1--1---22-22-22-22-2--2---44-44-44-44-4--4|
D|-------------------------------------------------------------------------|

CHORUS:                                                                  x2
G|-------------------------------------------------------------------------|
D|-------------------------------------------------------------------------|
A|------------------22-22-22-22-2---2--66-66-66-66-6--6---22-22-22-22-2--2-|
D|-44-44-44-44-4--4--------------------------------------------------------|

OUTRO:
G|--------------------------------------------------------------------|
D|--------------------------------------------------------------------|
A|--------------------------------------------------------------------|
D|-8--9--11--16-15-8--9--11-4-8--9--11--16-15-8--9--11---|
            
Submit corrections

↑ Back to top | Tablatures and chords for acoustic guitar and electric guitar, ukulele, drums are parodies/interpretations of the original songs. You may use it for private study, scholarship, research or language learning purposes only