» » »

Evans Blue - Over Stop And Say You Love Me Tabs

Artists:  A B C D E F G H I J K L M N O P Q R S T U V W X Y Z # 

Over Stop And Say You Love Me Tabs

(ver. 1) Click to play this song!
Evans Blue
 Rating:
4.3/5 (28 votes)

 Over Stop And Say You Love Me lessons Tabs too difficult? Try these video lessons and learn fast
 
                [Intro]  *Clean Tone*
D#|---------------------------------------------------------------
A#|---------------------------------------------------------------
F#|---------------------------------------------------------------
C#|---------------------------------------------------------------
G#|-----5h6-5-----5h6-6/8-8-8/6-6-----5h6-6----5h6-6/1-1-1h3-0----
C#|-0-0-------0-0-----------------0-0-------0-0-------------------
         *Distortion* 
D#|---------------------------------------------------------------
A#|---------------------------------------------------------------
F#|--7/8-7--------7/8-7--------------7/8-7-------7/8-7------------
C#|0-x/x-x--000-0-x/x-x-10-10-8-8--0-x/x-x-000-0-x/x-x-8-7-10-7---
G#|0-5/6-5--000-0-5/6-5-8--8--6-6--0-5/6-5-000-0-5/6-5-8-7-10-7---
C#|0-0-0-0--000-0-0-0-0------------0-0-0-0-000-0-0-0-0-8-7-10-7---
PM          ...         .  .  . .          ...         . . .  .
[Verse 1] *Distortion*
D#|---------------------------------------------------------------
A#|---------------------------------------------------------------
F#|---------------------------------------------------------------
C#|---------------------------------------------------------------
G#|----------------------------------------3h5--(x4)--------------
C#|-0-7-0-8-0-10-0-8-0-7--0-7-0-8-0-10-0-8------------------------
PM  . . . . . .  . . . .  . . . . . .  . .
[Pre-Chorus] *Clean Tone*
D#|---------------------------------------------------------------
A#|---------------------------------------------------------------
F#|---------------------------------------------------------------
C#|---------------------------------------------------------------
G#|---------------------------------------------------------------
C#|-7-8-10-8-7-(x2)-----------------------------------------------

[Chorus] *Distortion*
D#|---------------------------------------------------------------
A#|---------------------------------------------------------------
F#|---------------------------------------------------------------
C#|-8888-0-0-0-0-8888-3-3-3-3-8888-0-0-0-0-8888-3-3-3-3h5---------
G#|-8888-0-0-0-0-8888-3-3-3-3-8888-0-0-0-0-8888-3-3-3-3h5---------
C#|-8888-0-0-0-0-8888-3-3-3-3-8888-0-0-0-0-8888-3-3-3-3h5---------

[Verse 2] *Distortion*
D#|---------------------------------------------------------------
A#|---------------------------------------------------------------
F#|---------------------------------------------------------------
C#|---------------------------------------------------------------
G#|----------------------------------------3h5--------------------
C#|-0-7-0-8-0-10-0-8-0-7--0-7-0-8-0-10-0-8------------------------
PM  . . . . . .  . . . .  . . . . . .  . .
      
[Verse 2 Continued] *Distortion*
D#|---------------------------------------------------------------
A#|---------------------------------------------------------------
F#|---------------------------------------------------------------
C#|---------------------------------3*----------------------------
G#|---------------------------------3*(x6)------------------------
C#|-0-7-0-8-0-10-0-8-0-7--0-7-0-8-0-3*----------------------------
PM  . . . . . .  . . . .  . . . . .

[Verse 2 Continued]
D#|---------------------------------------------------------------
A#|---------------------------------------------------------------
F#|---------------------------------------------------------------
C#|---------------------------------------------------------------
G#|----------------------------------------3h5--(x2)--------------
C#|-0-7-0-8-0-10-0-8-0-7--0-7-0-8-0-10-0-8------------------------
PM  . . . . . .  . . . .  . . . . . .  . .
[Pre-Chorus] *Clean Tone*
D#|---------------------------------------------------------------
A#|---------------------------------------------------------------
F#|---------------------------------------------------------------
C#|---------------------------------------------------------------
G#|---------------------------------------------------------------
C#|-7-8-10-8-7-(x2)-----------------------------------------------

[Chorus] *Distortion*
D#|---------------------------------------------------------------
A#|---------------------------------------------------------------
F#|---------------------------------------------------------------
C#|-8888-0-0-0-0-8888-3-3-3-3-8888-0-0-0-0-8888-3-3-3-3h5---------
G#|-8888-0-0-0-0-8888-3-3-3-3-8888-0-0-0-0-8888-3-3-3-3h5-(x2)----
C#|-8888-0-0-0-0-8888-3-3-3-3-8888-0-0-0-0-8888-3-3-3-3h5---------


[Bridge] *Distortion*
D#|---------------------------------------------------------------
A#|---------------------------------------------------------------
F#|--------10-10-10-----------------------------------------------
C#|-0-0-0--10-10-10-8-8-8-(x4)------0-0-1p0-3-3-3h5-5-5---------7-
G#|-0-0-0--8--8--8--8-8-8-----------0-0-1p0-3-3-3h5-5-5-(x4)----7-
C#|-0-0-0-----------8-8-8-----------0-0-1p0-3-3-3h5-5-5---------5-

[Chorus] *Distortion*
D#|---------------------------------------------------------------
A#|---------------------------------------------------------------
F#|---------------------------------------------------------------
C#|-8888-0-0-0-0-8888-3-3-3-3-8888-0-0-0-0-8888-3-3-3-3h5---------
G#|-8888-0-0-0-0-8888-3-3-3-3-8888-0-0-0-0-8888-3-3-3-3h5---------
C#|-8888-0-0-0-0-8888-3-3-3-3-8888-0-0-0-0-8888-3-3-3-3h5---------

[Outro] *Distortion*
D#|---------------------------------------------------------------
A#|---------------------------------------------------------------
F#|--------10-10-10-----------------------------------------------
C#|-0-0-0--10-10-10-8-8-8-(x4)--0---------------------------------
G#|-0-0-0--8--8--8--8-8-8-------0---------------------------------
C#|-0-0-0-----------8-8-8-------0---------------------------------            
Submit corrections


        Over Stop And Say You Love Me lessons Hard to play? Try these video lessons and learn fast Over Stop And Say You Love Me lessons
        
↑ Back to top | Tablatures and chords for acoustic guitar and electric guitar, ukulele, drums are parodies/interpretations of the original songs. You may use it for private study, scholarship, research or language learning purposes only