» » »

Evanescence - Surrender Tabs

Artists:  A B C D E F G H I J K L M N O P Q R S T U V W X Y Z # 

Surrender Tabs

(ver. 1) Click to play this song!
Evanescence
 Rating:
4.4/5 (8 votes)

 Surrender lessons Tabs too difficult? Try these video lessons and learn fast
 
                e|---------------------------------|---------------------------------|
B|---------------------------------|---------------------------------|
G|---------------------------------|---------------------------------|
D|-2---2---------------------------|-2---2---------------------------|
A|-2---2---------3-----0---0-2-0---|-2---2---------3-----0---0-2-0---|
E|-0---0---0-0-0-----0---0-------3-|-0---0---0-0-0-----0---0-------3-|
           m m m     m   m                   m m m     m   m
   1   +   2   +   3   +   4   +     1   +   2   +   3   +   4   +    
   Emadd9          Em                Em7             C/E

e|---------------------------------|---------------------------------|
B|---------------------------------|---------------------------------|
G|---------------------------------|---------------------------------|
D|-2---2---------------------------|---------------------------------|
A|-2---2---------3-----0---0-2-0---|-3---3---------3---3---3-0-2-0---|
E|-0---0---0-0-0-----0---0-------3-|-3---3---3-3-3-3---3---3-------3-|
           m m m     m   m                   m m m
   1   +   2   +   3   +   4   +     1   +   2   +   3   +   4   +    
   Em              Esus              C               D            
Submit corrections


        Surrender lessons Hard to play? Try these video lessons and learn fast Surrender lessons
        
↑ Back to top | Tablatures and chords for acoustic guitar and electric guitar, ukulele, drums are parodies/interpretations of the original songs. You may use it for private study, scholarship, research or language learning purposes only