» » »

Evanescence - Secret Door Tabs

Artists:  A B C D E F G H I J K L M N O P Q R S T U V W X Y Z # 

Secret Door Tabs

(ver. 1) Click to play this song!
Evanescence
 Rating:
4.4/5 (17 votes)

 Secret Door lessons Tabs too difficult? Try these video lessons and learn fast
 
                Intro & Bridge
=======Em=====================
e|---------------------------|
B|---------------------------|
G|--------0-----------0------|
D|------2---2-------2---2----| intro x 2
A|----2-------2---2-------2--|
E|--0-----------0------------|

Verse pt. 1     turn out the...
                don't have to...
=========Em========Em===============Am====================
e|---------------------------|---------------------------|
B|---------------------------|--------1-----------0------|
G|--------0-----------0------|------2---2-------2---2----|
D|------2---2-------2---2----|----2-------2---2-------2--| x 2
A|----2-------2---2-------2--|--0-----------0------------|
E|--0-----------0------------|---------------------------|

Verse pt. 2     my heart is...
                all love is...
========Em===========Am===============C===========Em=======
e|----------------------------|---------------------------|
B|---------------------1------|--------1-----------0------|
G|--------0----------2---2----|------0---0-------0-0------|
D|------2---2------2-------2--|----2-------2---2---2------|
A|----2-------2--0------------|--3-----------2-----2-2-0--|
E|--0-------------------------|---------------------------|

Bridge

Verse pt. 1 & 2 and bridge played twice

Chorus          I, I will remember...
                unlock the heavens...
e|---------------|------------------------------------
B|---------------|------------------------------------
G|------2-4-2----|o------2-2-4-5-5-2-------2-4-2------
D|----2-------2--|o----2-------------2---2-------2----
A|--0------------|---0-----------------0-----------0--
E|---------------|------------------------------------

 |1st=&=2nd=ending=|=============last=ending============|
 |                     |same secret door?                   |       
e|---------------------|------------------------------------|
B|---------------------|------------------------------------|
G|---2-0-------2------o|-2-0-2-----2-----0-----2------------|
D|-------4-2-----2----o|-------2-----2-----2-----2---4-2-4--|
A|-----------0-----0---|---------0-----0-----0-----2--------|
E|---------------------|------------------------------------|

Solo

Chorus refrain

outro

e|-------------------------------|
B|-------------------------------|
G|--------2-----2-----2-----2----|
D|------2-----2-----2-----2------|
A|----2-----0--------------------|
E|----------------4-----2-----0--|
            
Submit corrections


        Secret Door lessons Hard to play? Try these video lessons and learn fast Secret Door lessons
        
↑ Back to top | Tablatures and chords for acoustic guitar and electric guitar, ukulele, drums are parodies/interpretations of the original songs. You may use it for private study, scholarship, research or language learning purposes only