» » »

Evanescence - Lacrymosa Bass

Artists:  A B C D E F G H I J K L M N O P Q R S T U V W X Y Z # 

Lacrymosa Bass

(ver. 1) Click to play this song!
Evanescence
 Rating:
3.2/5 (28 votes)

 Lacrymosa lessons Tabs too difficult? Try these video lessons and learn fast
 
                
Verse:

G|---------------------|X4
D|---------------------|
A|---------------------|
E|---------------------|
B|-5-5-5-5--5-5--5-\---|


Chorus:

G|--------------------------------------|X3
D|----------------5\--------------------|
A|-------7\----------------9\-----------|
E|-----------------------------7--7--7--|
B|-5-5-5-----5--5-----5--5--------------|


G|-------------------|
D|-------------------|
A|-------------------|
E|-7---0-------------|
B|---------0~---0~~--|


Post Chorus:

G|---------------------|X2
D|---------------------|
A|---------------------|
E|---------------------|
B|-5-5-5-5--5-5--5-\---|


Play:
- Verse
- Chorus


Break:

G|-------------------|
D|-------------------|
A|-------------------|
E|-0~----0~----------|
B|-------------1~----|


Verse 2:

G|---------------------------------------------------|
D|---------------------------------------------------|
A|--------------------7--7--7------------------------|
E|-0---0-0---0-0---0------------0-0---0-0---0--------|
B|---------------------------------------------3--3--|


G|---------------------------------------------------|
D|---------------------------------------------------|
A|--------------------3--3---------------------------|
E|---------------------------------------------------|
B|-1---1-1---1-1---1--------1---1-1---1-1---1--3--3--|


G|---------------------------------------------------|
D|---------------------------------------------------|
A|--------------------7--7--7------------------------|
E|-0---0-0---0-0---0------------0-0---0-0---0--------|
B|---------------------------------------------3--3--|


G|-------------------------------------|
D|-------------------------------------|
A|--------------------3--3-------------|
E|-------------------------------------|
B|-1---1-1---1-1---1--------1---1(x14)-|


Guitar Solo:

G|----------------------------------------|X3
D|----------------5--5--------------------|
A|------7--7----------------9-9-9---------|
E|-0--0------0--0------0--0---------------|
B|--------------------------------0--0--0-|


G|-----------------------------------------|
D|-----------------------------------------|
A|-----------------------------------------|
E|-0--0-0--0-0--0-0--0---------------------|
B|---------------------0--0-0--0-0--0-0--0-|


Chorus 2:

G|-------------------------------------|X3
D|---------------5\--------------------|
A|------7\----------------9\-----------|
E|----------------------------7--7--7--|
B|-5--5-----5--5-----5--5--------------|


G|-----------------------------------------|
D|-----------------------------------------|
A|-----------------------------------------|
E|-7--7-7--7-0--0-0--0---------------------|
B|---------------------0--0-0--0-0--0-0--0-|


Bridge:

G|-------------------------|
D|-------------------------|
A|-------------------------|
E|-0-0-0-0-0-0-000-0-0-0-0-|
B|-------------------------|


G|-------------------------|
D|-------------------------|
A|-------------------------|
E|-0-0-0-0-0-0-000-000-0-0-|
B|-------------------------|


End:

G|-------------------------------------------|
D|-------------------------------------------|
A|-------------------------------------------|
E|-5---5--5-5---5--5-5---5--5-5---5-3h5-0~---|
B|-------------------------------------------|            
Submit corrections


        Lacrymosa lessons Hard to play? Try these video lessons and learn fast Lacrymosa lessons
        
↑ Back to top | Tablatures and chords for acoustic guitar and electric guitar, ukulele, drums are parodies/interpretations of the original songs. You may use it for private study, scholarship, research or language learning purposes only