» » »

Evanescence - Bring Me To Life Tabs

Artists:  A B C D E F G H I J K L M N O P Q R S T U V W X Y Z # 

Bring Me To Life Tabs

(ver. 1) Click to play this song!
Evanescence
 Rating:
4.4/5 (14 votes)

 Bring Me To Life lessons Tabs too difficult? Try these video lessons and learn fast
 
                [Intro] and [Outro]**

  *This is not played the first time through the intro but is played through
   the 2nd and 3rd repeat
e|-------------------------------------------0-------------------------------|
B|-------0-----------0-----------1-----------------------0-------------------|
G|---------------2-----------------------------------------------------------|\
D|---2-----------2-------2-------2-------2-------2-------2-------2-----------| \
A|---2*------2-------2-------2-------2-------2-------2-------2---------------|  \
E|-------0----------------------------------(0)------------------------------|   \
                                                                                  3x
e|-------------------------------------------0-------------------------------|   /
B|-------0-----------0-----------1-----------------------0-------------------|  /
G|---------------2-----------------------------------------------------------| /
D|---2-----------2-------2-------2-------2-------2-------2-------2-----------|/
A|---2---0---3-------3-------3-------3-------3-------3-------3---------------|
E|---------------------------------------------------------------------------|
             
Submit corrections


        Bring Me To Life lessons Hard to play? Try these video lessons and learn fast Bring Me To Life lessons
        
↑ Back to top | Tablatures and chords for acoustic guitar and electric guitar, ukulele, drums are parodies/interpretations of the original songs. You may use it for private study, scholarship, research or language learning purposes only