» » »

Eskorbuto - Mucha Policia Tabs

Artists:  A B C D E F G H I J K L M N O P Q R S T U V W X Y Z # 

Mucha Policia Tabs

(ver. 2) Click to play this song!
Eskorbuto
 Rating:
4/5 (4 votes)

 Mucha Policia lessons Tabs too difficult? Try these video lessons and learn fast
 
                MUCHA POLICIA, POCA DIVERSION


eskorButo






solo 
e:---------------------------------------------------------------------------------------|
B:------5-----------5-------7b~~p5---5--7b~~p5---5--5p2-5p2-5p2-5p2-5p2-5p2-5p2-7bp5---5-|
G:--4h6---6~~~--4h6---6~~~---------6-----------6-------------------------------------6---|
D:---------------------------------------------------------------------------------------|
A:---------------------------------------------------------------------------------------|
E:---------------------------------------------------------------------------------------|


e:---------------------------------------------------------------------------------------|
B:-7bp5---5---12h14-12h14-12h14-12h14-12h14-12h14-12h14-12h14--14bp12----12-14-14-14-14b-|
G:------6-------------------------------------------------------------13-----------------|
D----------------------------------------------------------------------------------------|
A:---------------------------------------------------------------------------------------|
E:---------------------------------------------------------------------------------------|


e:-----------|
B:-16b--17b--|
G:-----------|
D:-----------|
A:-----------|
E:-----------|

intro
e:-----------------------|
B:-----------------------|
G:-----------------------|
D:-----------------------|
A:-4--6--6--6-6-6-6-6--6-|
E:-2--4--4--4-4-4-4-4--4-|

verse
mucha policia poka diversion...
e:-------------------------------------------|
B:-------------------------------------------|
G:-------------------------------------------|
D:-6-6-6-6-6-6--4-4-4-4-4-4-4----------------|
A:-4-4-4-4-4-4--2-2-2-2-2-2-2--4-4-4-4-4-4-4-|
E:-----------------------------2-2-2-2-2-2-2-|


¿Quién tiene el dinero, quién?....
e:-------------------------------------------------|
B:-------------------------------------------------|
G:-------------------------------------------------|
D:-------------------------------------------------|
A:-6-6-6-6-6-6-6-6-6-6--4--6-6-6-6-6-6-6-6-6-6--4--|
E:-4-4-4-4-4-4-4-4-4-4--2--4-4-4-4-4-4-4-4-4-4--2--|


e:------------------------------------|
B:------------------------------------|
G:------------------------------------|
D:------------------------------------|
A:-6-6-6-6-6-6-6-6--11-11-11-11-11-11-|
E:-4-4-4-4-4-4-4-4--9--9--9--9--9--9--|
            
Submit corrections


        Mucha Policia lessons Hard to play? Try these video lessons and learn fast Mucha Policia lessons
        
↑ Back to top | Tablatures and chords for acoustic guitar and electric guitar, ukulele, drums are parodies/interpretations of the original songs. You may use it for private study, scholarship, research or language learning purposes only