Home » E » Erin Mccarley »

Erin Mccarley - Pony Tabs

Artists:  A B C D E F G H I J K L M N O P Q R S T U V W X Y Z # 

Pony Tabs

(ver. 2) Click to play this song!
Erin Mccarley
Pony (It's OK)


Tuning: Eb Ab Db Gb Bb Eb (1/2 Step Down)

Contributor: Daniel Schnall

Intro / Verse (“You hold your head up to the sky...”)
e|--5----8----3----5--|
B|--5----8----3----6--|
G|--5----9----4----7--|
D|--7----10---5----7--|
A|--7----10---5----5--|
E|--5----8----3-------|

Chorus (“Go on go on go on...”)
e|--1-------3--|
B|--1-------3--|
G|--2---5---4--|
D|--3---5---5--|
A|--3---3---5--|
E|--1-------3--|

Chorus ends on
e|--5--|
B|--6--|
G|--7--|
D|--7--|
A|--5--|
E|-----|

Post-Chorus (“It's OK...”)
e|------3---5--|
B|------3---6--|
G|--5---4---7--|
D|--5---5---7--|
A|--3---5---5--|
E|------3------|

Bridge (“It's time for you to prove...”)
E|--------------1--|
B|--------------1--|
G|--------------2--|
D|--7--6--5--4--3--|
A|--7--7--5--5--3--|
E|--5--4--3--2--1--|
            
Submit corrections

↑ Back to top | Tablatures and chords for acoustic guitar and electric guitar, ukulele, drums are parodies/interpretations of the original songs. You may use it for private study, scholarship, research or language learning purposes only