» » »

Envy On The Coast - Made Of Stone Tabs

Artists:  A B C D E F G H I J K L M N O P Q R S T U V W X Y Z # 

Made Of Stone Tabs

(ver. 1) Click to play this song!
Envy On The Coast
 Rating:
4.4/5 (7 votes)

 Made Of Stone lessons Tabs too difficult? Try these video lessons and learn fast
 
                Tuning: Standard

Intro/Verse:

There are little diddies that Ryan plays
like hitting little harmonics and open high strings,
just get a feel for it then try adding them, it's
pretty easy and fun, this is just basically what's
being played.

e|--------------------------------------------------------------------------|
B|--------------------------------------------------------------------------|
G|--------------------------------------------------------------------------|
D|------------0/0-----------------------------------------------------------|
A|--7h9--7----2/4-----------------------------------------------------------|
E|--0----0----3/5-----------------------------------------------------------|

Chorus: Thanks to Alexishxc1337 for the Chorus correction!

e|-0--0--0----0--0--0-------2--0--------------0--0------|
B|-0--0--0----0--1--0----1--3--0--------------1--0------|
G|-4--5--7----0--2--2----0--2--0--------------2--2------|
D|-4--5--7----9--2--1----2--0--2--------------2--1------|
A|-2--3--5/---7--0--2----3-----2-----------0--0--2------|
E|----------0------------------0--0--2--3---------------|

Bridge: Same as the chorus basically, just use the
actual chords, not the power chords.

C - D - Em - Am - B7


OK, that's what I got for this song,
I tabbed it out from this video

Watch it and learn how to play it with this tab,
some parts I'm kinda not sure about, but they still
sound good.
            
Submit corrections


        Made Of Stone lessons Hard to play? Try these video lessons and learn fast Made Of Stone lessons
        
↑ Back to top | Tablatures and chords for acoustic guitar and electric guitar, ukulele, drums are parodies/interpretations of the original songs. You may use it for private study, scholarship, research or language learning purposes only