» » »

Envy On The Coast - Because All Suffering Is Sweet To Me Tabs

Artists:  A B C D E F G H I J K L M N O P Q R S T U V W X Y Z # 

Because All Suffering Is Sweet To Me Tabs

(ver. 1) Click to play this song!
Envy On The Coast
 Rating:
4.2/5 (5 votes)

 Because All Suffering Is Sweet To Me lessons Tabs too difficult? Try these video lessons and learn fast
 
                "...Because All Suffering Is Sweet To Me" - Envy On The Coast


This tab is complete except for the chords used towards the end of the song

Tuning: Standard

e|-------------------------------|-----------------------------------|
B|-------------------------------|-----------------------------------|
G|-------------------------------|-----------------------------------|
D|------7------7------7------7---|-------7------7------9------9------|
A|---8------8------8------8------|---10-----10-----11-----11---------|
E|-------------------------------|-----------------------------------|

e|-------------------------------|-----------------------------------|
B|-------------------------------|-----------------------------------|
G|-------------------------------|-----------------------------------|
D|------10-----10-----10-----10--|------14-----14--------------------|
A|---12-----12-----12-----12-----|--------------------15-----15------|
E|-------------------------------|---12-----12-----12-----12---------|
                                                                           
e|-------------------------------|-----------------------------------|
B|-------------------------------|-----------------------------------|
G|-------------------------------|-----------------------------------|
D|------12-----12-----12-----12--|------12-----12-----12-----12------|
A|---13-----13-----13-----13-----|---13-----13-----13-----13---------|
E|-------------------------------|-----------------------------------|

                                 {   Don't play last time through    }
e|-------------------------------|-----------------------------------|
B|-------------------------------|-----------------------------------|
G|-------------------------------|-----------------------------------|
D|-------------------------------|------14-----14-----14-----14------|
A|------7------7------7------7---|--/15-----15-----15-----15---------|
E|---8------8------8------8------|-----------------------------------| X4
                                                                        

   (0:34)
e|-------------------------------|-----------------------------------|
B|-------------------------------|-----------------------------------|
G|-------------------------------|-----------------------------------|
D|-------------------------------|-----------------------------------|
A|-------------------------------|-----------------------------------|
E|-8-8-8-8-8-8-8-8-7-7-7-7-7-7-7-|-5-5-5-5-5-5-5-5-4-4-4-4-4-4-4-4\--|(bass line)

e|-------------------------------|-----------------10--8--11--8--10\-|(played over bass
B|-------------------------------|-----------------------------------|line above in time)
G|-------------------------------|-----------------------------------|(0:39)
D|-------------------------------|-----------------------------------|
A|-------------------------------|-----------------------------------|
E|-------------------------------|-----------------------------------|


  (0:42)  
e|-14-12--------17--14-----------|-15--14p12-------------------------|
B|-------15-12-------------------|-----------15-12----14b15b14-12----|
G|-------------------------------|-----------------14----------------|
D|-------------------------------|-----------------------------------|
A|-------------------------------|-----------------------------------|
E|-------------------------------|-----------------------------------|

e|-14-12--------17--14-----------|-9h10(x4)--14h15(x2)-14-12---------|
B|-------15-12-------------------|-----------------------------------|
G|-------------------------------|-----------------------------------|
D|-------------------------------|-----------------------------------|
A|-------------------------------|-----------------------------------|
E|-------------------------------|-----------------------------------|

e|-14-12--------17--14-----------|-15--14p12-------------------------|Hold last note (12)
B|-------15-12-------------------|-----------15-12----14b15b14-12----|
G|-------------------------------|-----------------14----------------|
D|-------------------------------|-----------------------------------|
A|-------------------------------|-----------------------------------|
E|-------------------------------|-----------------------------------|

e|-------------------------------|-----------------------------------|
B|-11----------------------------|-9-----------------------------9/--|
G|-------------------------------|-----------------------------------|
D|-------------------------------|-----------------------------------|
A|-------------------------------|-----------------------------------|
E|-------------------------------|-----------------------------------|
  

   (1:18) (ECHO EFFECT USED IN ACTUAL SONG)
e|-17----------------------------|-17--17--17--17--17--17--17--17----|
B|----17----17-------------------|---17--17--17--17--17--17--17--17--|
G|-------17----14--16b17b16-14---|-----------------------------------|
D|-------------------------------|-----------------------------------|
A|-------------------------------|-----------------------------------|
E|-------------------------------|-----------------------------------|

e|20--20--20--20--20--20--20-----|-----------------------------------|
B|- 17--17--17--17--17--17--17---|-----------------------------------|
G|-------------------------------|-----------------------------------|
D|-------------------------------|-----------------------------------|
A|-------------------------------|-----------------------------------|
E|-------------------------------|-----------------------------------| x2


  (1:40)
e|-------------------------------|-----------------------------------|
B|-------------------------------|-----------------------------------|
G|-------------------------------|-----------------------------------|
D|-------------------------------|-----------------------------------|
A|-------------------------------|-----------------------------------|
E|-8-8-8-8-8-8-8-8-7-7-7-7-7-7-7-|-5-5-5-5-5-5-5-5-4-4-4-4-4-4-4-4-4\|(bass line) 

e|-------------------------------|-----------------10--8--11--8--10\-|(played over bass 
B|-------------------------------|-----------------------------------|line above in time)
G|-------------------------------|-----------------------------------|(1:44)
D|-------------------------------|-----------------------------------|
A|-------------------------------|-----------------------------------|
E|-------------------------------|-----------------------------------|


   (1:47)
e|-14-12--------17--14-----------|-15--14p12-------------------------|
B|-------15-12-------------------|-----------15-12----14b15b14-12----|
G|-------------------------------|-----------------14----------------|
D|-------------------------------|-----------------------------------|
A|-------------------------------|-----------------------------------|
E|-------------------------------|-----------------------------------|

e|-14-12--------17--14-----------|-9h10(x4)--14h15(x2)-14-12---------|
B|-------15-12-------------------|-----------------------------------|
G|-------------------------------|-----------------------------------|
D|-------------------------------|-----------------------------------|
A|-------------------------------|-----------------------------------|
E|-------------------------------|-----------------------------------|

e|-14-12--------17--14-----------|-15--14p12-------------------------|Hold last note (12)
B|-------15-12-------------------|-----------15-12----14b15b14-12----|
G|-------------------------------|-----------------14----------------|
D|-------------------------------|-----------------------------------|
A|-------------------------------|-----------------------------------|
E|-------------------------------|-----------------------------------|

e|-------------------------------|-----------------------------------|
B|-11----------------------------|-9---------------------------------|
G|-------------------------------|-----------------------------------|
D|-------------------------------|-----------------------------------|
A|-------------------------------|-----------------------------------|
E|-------------------------------|-----------------------------------|


(DON'T KNOW CHORDS USED FOR BRIDGE)


  (2:37)
e|-------14-12b14b12-10-12b14b12-10|---------------------------------|
B|----15---------------------------|----------------------14-15------|
G|/14------------------------------|----11h12p11----14---------------|
D|---------------------------------|/12----------12----12------------|
A|---------------------------------|---------------------------------|
E|---------------------------------|---------------------------------|

e|-------14-12b14b12-10-12b14b12-10|-12b14---------------------------|(pluck continuously while 
B|----15---------------------------|---------------------------------|bending for whole last measure,
G|/14------------------------------|---------------------------------|listen to the song to get
D|---------------------------------|---------------------------------|a better idea of how its
A|---------------------------------|---------------------------------|played)
E|---------------------------------|---------------------------------|

e|-------14-12b14b12-10-12b14b12-10|---------------------------------|
B|----15---------------------------|----------------------14-15------|
G|/14------------------------------|----11h12p11----14---------------|
D|---------------------------------|/12----------12----12------------|
A|---------------------------------|---------------------------------|
E|---------------------------------|---------------------------------|

e|-------14-12b14b12-10-12b14b12-10|-12b14---------------------------|(hold last note in bended 14
B|----15---------------------------|---------------------------------|to bring into thr next part
G|/14------------------------------|---------------------------------|of the song)
D|---------------------------------|---------------------------------|
A|---------------------------------|---------------------------------|
E|---------------------------------|---------------------------------|

(DON'T KNOW CHORDS USED FOR ENDING)

|-  / slide up
|-  \ slide down
|-  h hammer on
|-  p pull off
|-  b bend
            
Submit corrections


        Because All Suffering Is Sweet To Me lessons Hard to play? Try these video lessons and learn fast Because All Suffering Is Sweet To Me lessons
        
↑ Back to top | Tablatures and chords for acoustic guitar and electric guitar, ukulele, drums are parodies/interpretations of the original songs. You may use it for private study, scholarship, research or language learning purposes only