Home » E » Entombed »

Entombed - To Ride Shoot Straight And Spe... Tabs

Artists:  A B C D E F G H I J K L M N O P Q R S T U V W X Y Z # 

To Ride Shoot Straight And Spe... Tabs

(ver. 1) Click to play this song!
Entombed
 Rating:
4/5 (4 votes)
                Tune down to C (down 2 whole steps)

p = pull off
b = bend
r = release
. = palm mute
" = tremolo picking
/ = slide up


Intro (about 5 times)
This part is actually being played backwards
e|-------------------|
B|-------------------|
G|-------------------|
D|-2"--3"--5"--6"----|
A|-------------------|
E|-------------------|

Main riff (twice)
e|---------------------------------------------------------------------------------|
B|---------------------------------------------------------------------------------|
G|---------------------------------------------------------------------------------|
D|---------------------------------------------------------------------------------|
A|-3--3-3--3-3--3-3--3-6--6-6--6-6--6-6--6-2--2-2--2-2--2-2--2-6--6-6--6-6--6-6--6-|
E|-1--1-1--1-1--1-1--1-4--4-4--4-4--4-4--4-0--0-0--0-0--0-0--0-4--4-4--4-4--4-4--4-| 
   .  . .  . .  . .  . .  . .  . .  . .  . .  . .  . .  . .  . .  . .  . .  . .  .
e|---------------------------------------------------------------------------------|
B|---------------------------------------------------------------------------------|
G|---------------------------------------------------------------------------------|
D|---------------------------------------------------------------------------------|
A|-3--3-3--3-3--3-3--3-6--6-6--6-6--6-6--6-2--2-2--2-2--2-2--2-6--6-6--2-b(3)-r(2)-|
E|-1--1-1--1-1--1-1--1-4--4-4--4-4--4-4--4-0--0-0--0-0--0-0--0-4--4-4--------------|
   .  . .  . .  . .  . .  . .  . .  . .  . .  . .  . .  . .  . .  . .

After the 2nd time Hellid plays (Cederlund continues playing the main riff)
e|-------------------------------------------------------------------------------|
B|-------------------------------------------------------------------------------|
G|-------------------------------------------------------------------------------|
D|-/6---/5---/3---/2---/6---/5---/3---/2---/6---/5---/3---/2---/6---/5---/6---/8-|
A|-------------------------------------------------------------------------------|
E|-------------------------------------------------------------------------------|

e|-------------------------------------------------------------------------------|
B|-------------------------------------------------------------------------------|
G|-------------------------------------------------------------------------------|
D|-/6---/5---/3---/2---/6---/5---/3---/2---/6---/5---/3---/2---/6---/5-----------|
A|---------------------------------------------------------------------2b(3)r(2)-|
E|-------------------------------------------------------------------------------|

1st Verse: main riff

Then the main riff with Hellid's variation

2nd verse: main riff

Pre-chorus
e|----------------------------------------------------------------|
B|----------------------------------------------------------------|
G|----------------------------------------------------------------|
D|----------------------------------------------------------------|
A|----------------------------------------------------------------|
E|1/2-1-1-1-1-1-1-1/2-1-1-1-1-1-1-1/2-1-1-1-1-1-1-1/2-1-1-1-1-1-1-|

e|---------------------------------------------------------------|
B|---------------------------------------------------------------|
G|-8/10--10-10-10-10-10-8/10--10-10-10-10-10-8/10----------------|
D|-------------------------------------------------9--9--8--8--6-|
A|-6/8---8--8--8--8--8--6/8---8--8--8--8--8--6/8-----------------|
E|-------------------------------------------------7--7--6--6--4-|

Chorus (x2)
e|-------------------------------------------|
B|-------------------------------------------|
G|-------------------------------------------|
D|-3-----6-6-6-2-----6-6-6-3-----6-6-6-2-----|
A|-3-----6-6-6-2-----6-6-6-3-----6-6-6-2-----|
E|-1-----4-4-4-0-----4-4-4-1-----4-4-4-0-----|

Main riff with Hellid's variation (tremolo pick it instead of sliding)

3rd verse: main riff

Prechorus

Chorus

Bridge:
Hellid plays intro riff (this time it isn't backwards, so it goes D|-6"-5"-3"-2")
Cederlund plays pre-chorus

Solo (A. Hellid)
e|-------------------------------------------------------------------------------|
B|-------------------------------------------------------------------------------|
G|-------------------------------------------------------------------------------|
D|-3"---6"---5"---6"---3"---6"---5"---3"---2"---5"---3"---5"---6"---5"---3"---2"-|
A|-------------------------------------------------------------------------------|
E|-------------------------------------------------------------------------------|

e|-------------------------------------------------------------------------------|
B|-------------------------------------------------------------------------------|
G|-------------------------------------------------------------------------------|
D|-3"---6"---5"---6"---8"---6"---5"---3"---2"---5"---3"---5"---6"---8"---10---12-|
A|-------------------------------------------------------------------------------|
E|-------------------------------------------------------------------------------|

e|-----16\------16\------16\------16\--------------------------------------------------------|
B|-/18------/18------/18------/18--------------------------------------16--------------------|
G|-------------------------------------/15-13~--/15-13~--13/15-15b(17)----15-13--15p13----13-|
D|-------------------------------------------------------------------------------------15----|
A|-------------------------------------------------------------------------------------------|
E|-------------------------------------------------------------------------------------------|

e|---------------------------------------------------------------16--16--16--16--|
B|-6--------6---6---6--9--------9---9---9---12-------12--12--12--19b-19b-19b-19b-|
G|-8b(10)---8b--8b--8b-11b(13)--11b-11b-11b-14b(16)--14b-14b-14b-----------------|
D|-------------------------------------------------------------------------------|
A|-------------------------------------------------------------------------------|
E|-------------------------------------------------------------------------------|
            
Submit corrections

↑ Back to top | Tablatures and chords for acoustic guitar and electric guitar, ukulele, drums are parodies/interpretations of the original songs. You may use it for private study, scholarship, research or language learning purposes only