Home » E » Entombed »

Entombed - Bitter Loss Tabs

Artists:  A B C D E F G H I J K L M N O P Q R S T U V W X Y Z # 

Bitter Loss Tabs

(ver. 1) Click to play this song!
Entombed
Tuning: B

Intro riff
e|---------------------------------------------------------------------------|
B|---------------------------------------------------------------------------|
G|---------------------------------------------------------------------------|
D|8-----------------------3------------------------------2-------------------|
A|8-----------------------3------------------------------2-------------------|
E|6-----------------------1------------------------------0-------------------|

e|---------------------------------------------------------------------------|
B|---------------------------------------------------------------------------|
G|---------------------------------------------------------------------------|
D|8-----------------------11-----------------------------14------------------|
A|8-----------------------11-----------------------------14------------------|
E|6-----------------------9------------------------------12------------------|

End of lead
e|---------------------------------------------------------------------------|
B|---------------------------------------------------------------------------|
G|---------------------------------------------------------------------------|
D|---------------------------------------------------------------------------|
A|11-10-8-11-10-8-11-10-10-9-7-10-9-7-10-9-7\--------------------------------|
E|---------------------------------------------------------------------------|

Verse riff, all pm except for the chords
e|---------------------------------------------------------------------------|
B|---------------------------------------------------------------------------|
G|---------------------------------------------------------------------------|
D|---------------------------------------------------------------------------|
A|----------------2------------------------2--2--3--3------------------------|
E|4-3-1-4-3-1-3-1-0-000000-4-3-1-4-3-1-3-1-0--0--1--1------------------------|

e|---------------------------------------------------------------------------|
B|---------------------------------------------------------------------------|
G|---------------------------------------------------------------------------|
D|6p5p3-6p5p3-6---2----3----5----7/8-----------------------------------------|
A|----------------2----3----5----7/8-----------------------------------------|
E|----------------0-00-1-00-3-00-5/6-----------------------------------------|

Bass break, repeat above riff            
Submit corrections

↑ Back to top | Tablatures and chords for acoustic guitar and electric guitar, ukulele, drums are parodies/interpretations of the original songs. You may use it for private study, scholarship, research or language learning purposes only