» » »

Enter Shikari - Torn Apart Tabs

Artists:  A B C D E F G H I J K L M N O P Q R S T U V W X Y Z # 

Torn Apart Tabs

(ver. 2) Click to play this song!
Enter Shikari
 Rating:
4.3/5 (18 votes)

 Torn Apart  lessons Tabs too difficult? Try these video lessons and learn fast
 
                [Intro]                                                         

                                                              Let Ring
d|-----------------------------------|---------------------------0-------|
A|-----------------------------------|-----------------------------0-----|
F|----4-----5-----7-----9------7-/9--|----4-----5---1---4---2------------|
C|----6-----7-----9-----10-----9-/10-|----6-----7---2---6---3------------| x6
G|0-0---0-0---0-0---0-0----0-0-------|0-0---0-0---0---0---0--------------|
D|-----------------------------------|-----------------------------------|


(There's a short 4 bar synth breakdown here, no need to play anything)


[1st Verse]                                                  

                                                              Let Ring
d|-----------------------------------|---------------------------0-------|
A|-----------------------------------|-----------------------------0-----|
F|----4-----5-----7-----9------7-/9--|----4-----5---1---4---2------------|
C|----6-----7-----9-----10-----9-/10-|----6-----7---2---6---3------------| x4
G|0-0---0-0---0-0---0-0----0-0-------|0-0---0-0---0---0---0--------------|
D|-----------------------------------|-----------------------------------|


[Chorus]

d|-----------------------------------|-----------------------------------|
A|-----------------------------------|-----------------------------------|
F|2--2-2--/5-5-5-5-------------------|-----------------------------------|
C|2--2-2--/5-5-5-5-5-5--5------------|5--5-5--\2-2-2-2-/3-3--3-----------| x4
G|0--0-0--/3-3-3-3-5-5--5------------|5--5-5--\2-2-2-2-/3-3--3-----------|
D|-----------------3-3--3------------|3--3-3--\0-0-0-0-/1-1--1-----------|


(Another short 4 bar synth breakdown here, don't play)


[2nd Verse]                                                   

                                                              Let Ring
d|-----------------------------------|---------------------------0-------|
A|-----------------------------------|-----------------------------0-----|
F|----4-----5-----7-----9------7-/9--|----4-----5---1---4---2------------|
C|----6-----7-----9-----10-----9-/10-|----6-----7---2---6---3------------| x4
G|0-0---0-0---0-0---0-0----0-0-------|0-0---0-0---0---0---0--------------|
D|-----------------------------------|-----------------------------------|


[Chorus]

d|-----------------------------------|-----------------------------------|
A|-----------------------------------|-----------------------------------|
F|2--2-2--/5-5-5-5-------------------|-----------------------------------|
C|2--2-2--/5-5-5-5-5-5--5------------|5--5-5--\2-2-2-2-/3-3--3-----------| x4
G|0--0-0--/3-3-3-3-5-5--5------------|5--5-5--\2-2-2-2-/3-3--3-----------|
D|-----------------3-3--3------------|3--3-3--\0-0-0-0-/1-1--1-----------|


[Bridge - Guitar 1]

d|8---8--8---8--8--8--/7--7-7--7-7-7-|7--7-7--7-7-7-\5--5-5--5-5-5-------|
A|10--10-10--10-10-10-/8--8-8--8-8-8-|8--8-8--8-8-8-\6--6-6--6-6-6-------|
F|-----------------------------------|-----9--------------5--------------| x4
C|-------10-----------------10-------|-----------------------------------|
G|-----------------------------------|-----------------------------------|
D|-----------------------------------|-----------------------------------|


[Bridge - Guitar 2]

d|-----------------------------------|-----------------------------------|
A|-----------------------------------|-----------------------------------|
F|-----------------------------------|-----------------------------------| x2
C|-----------------------------------|-----------------------------------|
G|-----------------------------------|-----------------------------------|
D|-----------------------------------|-----------------------------------|

d|-----------------------------------|-----------------------------------|
A|-----------------------------------|-----------------------------------|
F|2--2-2--/5-5-5-5-------------------|-----------------------------------|
C|2--2-2--/5-5-5-5-5-5--5------------|5--5-5--\2-2-2-2-/3-3--3-----------| x12
G|0--0-0--/3-3-3-3-5-5--5------------|5--5-5--\2-2-2-2-/3-3--3-----------|
D|-----------------3-3--3------------|3--3-3--\0-0-0-0-/1-1--1-----------|
            
Submit corrections


        Torn Apart  lessons Hard to play? Try these video lessons and learn fast Torn Apart  lessons
        
↑ Back to top | Tablatures and chords for acoustic guitar and electric guitar, ukulele, drums are parodies/interpretations of the original songs. You may use it for private study, scholarship, research or language learning purposes only