» » »

Enter Shikari - Today Wont Go Down In History Tabs

Artists:  A B C D E F G H I J K L M N O P Q R S T U V W X Y Z # 

Today Wont Go Down In History Tabs

(ver. 2) Click to play this song!
Enter Shikari
 Rating:
4/5 (4 votes)

 Today Wont Go Down In History lessons Tabs too difficult? Try these video lessons and learn fast
 
                (Intro)
-------------------------------------------------------------------------------
             Today Won't Go Down In History intro - Enter Shikari
-------------------------------------------------------------------------------

Tuning: standard

  Intro
e|---------------------------------------------------------------------------|
B|---------------------------------------------------------------------------|
G|--77-7-14\--------77-7-14\-------77-7-14\--------77------------------------|
D|---------------------------------------------------------------------------|
A|--55-5-12\--------55-5-12\-------55-5-12\--------55------------------------|
E|---------------------------------------------------------------------------|
  part 1
e|---------------------------------------------------------------------------|
B|---------------14----77-7--------------------------------------------------|
G|-77-7-----77-7-------xx-x7--77-7-------------------------------------------|
D|------7--------------xx-xx--xx-x-7-----------------------------------------|
A|-55-5-7---55-5-12----55-55--55-5-5-----------------------------------------|
E|---------------------------------------------------------------------------|

  part 2                                    tap on
e|---------------------------------------------------------------------------|
B|---------------------77-7--------------------------------------------------|
G|-77-7-----77-7-------xx-x7--9p7p66h7h99p7p6-(T)11--------------------------|
D|------7--------7-----xx-xx-------------------------------------------------|
A|-55-5-7---55-5-7-----55-55-------------------------------------------------|
E|---------------------------------------------------------------------------|
  part 3
e|---------------------------------------------------------------------------|
B|---------------------77-7--------------------------------------------------|
G|-77-7-----77-7-------xx-x7--77-7-------------------------------------------|
D|------7--------7-----xx-xx--xx-x-7-----------------------------------------|
A|-55-5-7---55-5-7-----55-55--55-5-5-----------------------------------------|
E|---------------------------------------------------------------------------|

It Goes...
Intro, Part 1, Part 2, part 3, part 3

| /  slide up
| \  slide down
| h  hammer-on
| p  pull-off
| ~  vibrato
| +  harmonic
| x  Mute note
===============================================================================
            
Submit corrections


        Today Wont Go Down In History lessons Hard to play? Try these video lessons and learn fast Today Wont Go Down In History lessons
        
↑ Back to top | Tablatures and chords for acoustic guitar and electric guitar, ukulele, drums are parodies/interpretations of the original songs. You may use it for private study, scholarship, research or language learning purposes only