» » »

Enter Shikari - The Last Garrison Tabs

Artists:  A B C D E F G H I J K L M N O P Q R S T U V W X Y Z # 

The Last Garrison Tabs

(ver. 1) Click to play this song!
Enter Shikari
 Rating:
4/5 (4 votes)

 The Last Garrison  lessons Tabs too difficult? Try these video lessons and learn fast
 
                Tuning: Drop C


Intro:

Dirty w/ some modulation

e|--7-777-7-7-88-8-----------------------------------------------------------|
B|-----------------8-8-8-10--------------------------------------------------|
G|--9-999-9-9-99-9-9-9-9-9--9-9-9-9--7-7-------------------------------------|
D|--------------------------7-7-7-7--5-5-7-7---------------------------------|
A|---------------------------------------5-5---------------------------------|
E|---------------------------------------------------------------------------|

Verse:

e|----------------------------------------|
B|------202020202020---------20--19-------|
G|----------------------------------------|
D|-2-2--171717171717--2-2-2---------------|
A|-2-2----------------2-2-2---------------|
E|-2-2----------------2-2-2---------------|

e|---------------------------------------------------------------------------|
B|---------------------------------------------------------------------------|
G|-----11/12-12121212--------11/12-12121212/11-------------------------------|
D|-2-2-----------------2-2-2-------------------------------------------------|
A|-2-2--9/10-10101010--2-2-2--9/10-10101010/9--------------------------------|
E|-2-2-----------------2-2-2-------------------------------------------------|

Pre-Chorus:

e|---------------------------------------------------------------------------|
B|---------------------------------------------------------------------------|
G|--12-12-12-12-12-12------------------14-14-14-14---------------------------|
D|--10-10-10-10-10-10-10-10--5-5-5-5-----------------------------------------|
A|--10-10-10-10-10-10-10-10--5-5-5-5---12-12-12-12---------------------------|
E|--10-10-10-10-10-10-10-10--5-5-5-5-----------------------------------------|

Chorus:

e|---------------------------------------------------------------------------|
B|---------------------------------------------------------------------------|
G|---------------------------------------------------------------------------|
D|-12-14-12121212-14-9999-10-9999-10--121212---------------------------------|
A|-12-14-12121212-14-9999-10-9999-10--121212---------------------------------|
E|-12-14-12121212-14-9999-10-9999-10--121212---------------------------------|

e|---------------------------------------------------------------------------|
B|---------------------------------------------------------------------------|
G|-------------------------12------------14----------------------------------|
D|-12-14-12121212-14-9999--12--10101010--14---12121212-----------------------|
A|-12-14-12121212-14-9999--10--10101010--12---12121212-----------------------|
E|-12-14-12121212-14-9999------10101010-------12121212-----------------------|

Post Chorus:(I think the notes are C,D,F,G, so I made some chords here, since I can´t figure it outby ear)
Clean and add some modulation

e|--5-7--5-7---3-3-5----------|
B|--5-7--5-7---3-3-5----------|
G|--7-9--7-9---0-0-0----------|
D|--7-9--7-9---5-5-7----------|
A|--5-7--5-7---5-5-7----------|
E|----------------------------|

Repeat Intro x3

Chorus

e|---------------------------------------------------------------------------|
B|---------------------------------------------------------------------------|
G|---------------------------------------------------------------------------|
D|-12-14-12121212-14-9999-10-9999-10--121212---------------------------------|
A|-12-14-12121212-14-9999-10-9999-10--121212---------------------------------|
E|-12-14-12121212-14-9999-10-9999-10--121212---------------------------------|

e|---------------------------------------------------------------------------|
B|---------------------------------------------------------------------------|
G|-------------------------12------------14----------------------------------|
D|-12-14-12121212-14-9999--12--10101010--14---12121212-----------------------|
A|-12-14-12121212-14-9999--10--10101010--12---12121212-----------------------|
E|-12-14-12121212-14-9999------10101010-------12121212-----------------------|

Right in last time do:

e|---------------------------------------------------------------------------|
B|--------------------------------------------20202020-----------------------|
G|-------------------------12------------14----------------------------------|
D|-12-14-12121212-14-9999--12--10101010--14---17171717-----------------------|
A|-12-14-12121212-14-9999--10--10101010--12----------------------------------|
E|-12-14-12121212-14-9999------10101010--------------------------------------|
            
Submit corrections


        The Last Garrison  lessons Hard to play? Try these video lessons and learn fast The Last Garrison  lessons
        
↑ Back to top | Tablatures and chords for acoustic guitar and electric guitar, ukulele, drums are parodies/interpretations of the original songs. You may use it for private study, scholarship, research or language learning purposes only