Home » E » Enter Shikari »

Enter Shikari - The Dreamers Hotel Tabs

Artists:  A B C D E F G H I J K L M N O P Q R S T U V W X Y Z # 

The Dreamers Hotel Tabs

(ver. 1) Click to play this song!
Enter Shikari
[Verse] Distorted Guitar (Come in at 00:13)
 
D|------------------------------------------------------------|
A|------------------------------------------------------------|
F|------------------------------------------------------------|
C|------------------------------------------------------------|
G|-18p0-13p0-0-------------0h13--18p0-13p-0-------------0h13--|
C|---------------1-1-1-1-1--------------------1-1-1-1-1-------|
 
D|-------------------------------------------------------------|
A|-------------------------------------------------------------|
F|-------------------------------------------------------------|
C|-------------------------------------------------------------|
G|--18po-13p0-0------------------------------------------------|
C|----------------1-1-1-1-1-1-3-3-3-3-3-3-3-3-4-4-4-4-4-4-4-4--|
 
D|------------------------------------------------------------|
A|------------------------------------------------------------|
F|------------------------------------------------------------|
C|------------------------------------------------------------|
G|-18p0-13p0-0-------------0h13--18p0-13p-0-------------0h13--|
C|---------------1-1-1-1-1--------------------1-1-1-1-1-------|
 
D|-------------------------------------------------|
A|-------------------------------------------------|
F|-------------------------------------------------|
C|-------------------------------------------------|
G|--18po-13p0-0------------------------------------|
C|----------------1-1-1-1-1-1-3-3-3-3-3-3-3-3-4----|
 
[Chorus]
 
D|-----------------------------------------------------------------|
A|-----------------------------------------------------------------|
F|-----------------------------------------------------------------|
C|-0--0---------3--3--3-3-3----7--7--7-7-7--9---9---9---9--9--9----| x4
G|-0--0-11p8p0--3--3--3-3-3----7--7--7-7-7--10--10--10--10-10-10---|
C|-0--0---------3--3--3-3-3----7--7--7-7-7--9---9---9---9--9--9----|
 
 
[Verse] (Come in at 1:06)
 
D|------------------------------------------------------------|
A|------------------------------------------------------------|
F|------------------------------------------------------------|
C|------------------------------------------------------------|
G|-18p0-13p0-0-------------0h13--18p0-13p-0-------------0h13--|
C|---------------1-1-1-1-1--------------------1-1-1-1-1-------|
 
D|-------------------------------------------------------------|
A|-------------------------------------------------------------|
F|-------------------------------------------------------------|
C|-------------------------------------------------------------|
G|--18po-13p0-0------------------------------------------------|
C|----------------1-1-1-1-1-1----------------------------------|
 
D|------------------------------------------------------------|
A|------------------------------------------------------------|
F|------------------------------------------------------------|
C|------------------------------------------------------------|
G|-18p0-13p0-0-------------0h13--18p0-13p-0-------------0h13--|
C|---------------1-1-1-1-1--------------------1-1-1-1-1-------|
 
D|-------------------------------------------------|
A|-------------------------------------------------|
F|-------------------------------------------------|
C|-------------------------------------------------|
G|--18po-13p0-0------------------------------------|
C|----------------1-1-1-1-1-1-3-3-3-3-3-3-3-3-4----|
 
[Chorus]
 
D|-----------------------------------------------------------------|
A|-----------------------------------------------------------------|
F|-----------------------------------------------------------------|
C|-0--0---------3--3--3-3-3----7--7--7-7-7--9---9---9---9--9--9----| x4
G|-0--0-11p8p0--3--3--3-3-3----7--7--7-7-7--10--10--10--10-10-10---|
C|-0--0---------3--3--3-3-3----7--7--7-7-7--9---9---9---9--9--9----|
 
[Break] Clean Guitar (1:58)
 
D|-----------------------------------------------------------------------|
A|-----------------------------------------------------------------------|
F|-5--5---------5---5-x-5---5-x-x-5--5--5-5-5--7---7---x-7---7--7--7-----|
C|-0--0---------3---3-x-3---3-x-x-5--5--5-5-5--9---9---x-9---9--9--9-----|
G|-0--0-11p8p0--3---3-x-3---3-x-x-7--7--7-7-7--10--10--x-10--10-10-10----|
C|-0--0---------3---3-x-3---3-x-x-7--7--7-7-7--9---9---x-9---9--9--9-----|
 
D|--------------------------------------------------|
A|--------------------------------------------------|
F|-5--5---------5---5-x-5---5-x-x-5--5--5-5-5--7----|
C|-0--0---------3---3-x-3---3-x-x-5--5--5-5-5--9----|
G|-0--0-11p8p0--3---3-x-3---3-x-x-7--7--7-7-7--10---|
C|-0--0---------3---3-x-3---3-x-x-7--7--7-7-7--9----|
 
(2:10) Distorted Guitar
 
D|------------------------------------------------------------------|
A|------------------------------------------------------------------|
F|-5--5---------5--5--5-5-5----5--5--5-5-5--7---7---7---7--7--7-----|
C|-0--0---------3--3--3-3-3----5--5--5-5-5--9---9---9---9--9--9-----|
G|-0--0-11p8p0--3--3--3-3-3----7--7--7-7-7--10--10--10--10-10-10----|
C|-0--0---------3--3--3-3-3----7--7--7-7-7--9---9---9---9--9--9-----|
 
D|------------------------------------------------------------------|
A|------------------------------------------------------------------|
F|--------------5--5--5-5-5----5--5--5-5-5--7---7---7---7--7--7-----|
C|-12\----------3--3--3-3-3----5--5--5-5-5--9---9---9---9--9--9-----|
G|-12\--11p8p0--3--3--3-3-3----7--7--7-7-7--10--10--10--10-10-10----|
C|-12\----------3--3--3-3-3----7--7--7-7-7--9---9---9---9--9--9-----|
 
[Chorus]
 
D|-----------------------------------------------------------------|
A|-----------------------------------------------------------------|
F|-----------------------------------------------------------------|
C|-0--0---------3--3--3-3-3----7--7--7-7-7--9---9---9---9--9--9----| x4
G|-0--0-11p8p0--3--3--3-3-3----7--7--7-7-7--10--10--10--10-10-10---|
C|-0--0---------3--3--3-3-3----7--7--7-7-7--9---9---9---9--9--9----|
            
Submit corrections

↑ Back to top | Tablatures and chords for acoustic guitar and electric guitar, ukulele, drums are parodies/interpretations of the original songs. You may use it for private study, scholarship, research or language learning purposes only