» » »

Enter Shikari - Stand Your Ground This Is Ancient Land Tabs

Artists:  A B C D E F G H I J K L M N O P Q R S T U V W X Y Z # 

Stand Your Ground This Is Ancient Land Tabs

(ver. 1) Click to play this song!
Enter Shikari
 Rating:
4/5 (4 votes)

 Stand Your Ground This Is Ancient Land lessons Tabs too difficult? Try these video lessons and learn fast
 
                
Synth transcribed for guitar:

d#-------------|
A#-10--6--5--3-|
F#-------------|
C#-------------|
G#-------------|
C#-------------|

Guitar now comes in:

d#-13--12--13--12--13--12--13--12--13--12--13--12------|
A#-----------------------------------------------------|
F#-----------------------------------------------------|
C#-------------------------------------------------15\-|
G#-----------------------------------------------------|
C#-----------------------------------------------------|

d#-13--12--13--12--13--12--13--12--13--12--13--12--15-|
A#----------------------------------------------------|
F#----------------------------------------------------|
C#----------------------------------------------------|
G#----------------------------------------------------|
C#----------------------------------------------------|

d#----18--18--18--17-|
A#-15----------------|
F#-------------------|
C#-------------------|
G#-------------------|
C#-------------------|

d#-13--12--13--12--13--12--13--12--13--12--13--12------|
A#-----------------------------------------------------|
F#-----------------------------------------------------|
C#-------------------------------------------------15\-|
G#-----------------------------------------------------|
C#-----------------------------------------------------|


d#-13--12--13--12--13--12--13--12--13--12--13--12--15-|
A#----------------------------------------------------|
F#----------------------------------------------------|
C#----------------------------------------------------|
G#----------------------------------------------------|
C#----------------------------------------------------|

d#----17--15-|
A#-15--------|
F#-----------|
C#-----------|
G#-----------|
C#-----------|
            
Submit corrections


        Stand Your Ground This Is Ancient Land lessons Hard to play? Try these video lessons and learn fast Stand Your Ground This Is Ancient Land lessons
        
↑ Back to top | Tablatures and chords for acoustic guitar and electric guitar, ukulele, drums are parodies/interpretations of the original songs. You may use it for private study, scholarship, research or language learning purposes only