Home » E » Enter Shikari »

Enter Shikari - Stand You Ground This Is Ancient Land Tabs

Artists:  A B C D E F G H I J K L M N O P Q R S T U V W X Y Z # 

Stand You Ground This Is Ancient Land Tabs

(ver. 1) Click to play this song!
Enter Shikari
 Rating:
4/5 (4 votes)
                This Is The Correct Version Of The First Track On Take To The Skies! All Other TAB's At 
Moment For This Are Tabbed In Standard Tuning When All The Album Is In C# So Basically 
Is The Good sh*t

Tuning: Drop C#/ Db

Dancy Beginning Going "Aaaaaah Aaaaaaah Aaaaaaah Aaaaaaaah"


Put On Heavy Reverb And Some Delay

[00:27 - 00:32]
D#|--13-12-13-12-13-12-13-12-13-12-13-12-13-12---------------------------|
A#|--------------------------------------------9/0-----------------------|
F#|----------------------------------------------------------------------|
C#|----------------------------------------------------------------------|
G#|----------------------------------------------------------------------|
C#|----------------------------------------------------------------------|

  |--13-12-13-12-13-12-13-12-13-12-13-12-13-12-15~~~~~~~10-18~~17~~------|
  |----------------------------------------------------------------------|
  |----------------------------------------------------------------------|
  |----------------------------------------------------------------------|
  |----------------------------------------------------------------------|
  |----------------------------------------------------------------------|

  |--13-12-13-12-13-12-13-12-13-12-13-12-13-12---------------------------|
  |--------------------------------------------9/0-----------------------|
  |----------------------------------------------------------------------|
  |----------------------------------------------------------------------|
  |----------------------------------------------------------------------|
  |----------------------------------------------------------------------|

  |--13-12-13-12-13-12-13-12-13-12-13-12-13-12-15~~~~~~~~~10~~~17~~~15~~~|
  |----------------------------------------------------------------------|
  |----------------------------------------------------------------------|
  |----------------------------------------------------------------------|
  |----------------------------------------------------------------------|
  |----------------------------------------------------------------------|


There You Have It. Go Easy This Is My First TAB.
Thanks Dudes And Dudettes! =)

P.S I Am Hoping To TAB The Whole Album Soon I'm Working On "Today Wont GO Down In 
And "Return To Energizer!" So If You Have Any Ideas Towards Those Songs Then E-Mail Me Using 
Above Address.
Much Thanks!
            
Submit corrections

↑ Back to top | Tablatures and chords for acoustic guitar and electric guitar, ukulele, drums are parodies/interpretations of the original songs. You may use it for private study, scholarship, research or language learning purposes only