» » »

Enter Shikari - Stalemate Tabs

Artists:  A B C D E F G H I J K L M N O P Q R S T U V W X Y Z # 

Stalemate Tabs

(ver. 2) Click to play this song!
Enter Shikari
 Rating:
4/5 (4 votes)

 Stalemate lessons Tabs too difficult? Try these video lessons and learn fast
 
                Intro (play twice)

(palm muted)
e|--------------------------------------------------------------------------|
B|--------------------------------------------------------------------------|
G|-----------0-----------------0-----------------0-----------------0--------|
D|-----5-----------5-----5-----------5-----4-----------4-----4-----------4--|
A|--7-----7-----7-----7-----7-----7-----5-----5-----5-----5-----5-----5-----|
D|--------------------------------------------------------------------------|


e|--------------------------------------------------------------------------|
B|--------------------------------------------------------------------------|
G|-----------0-----------------0-----------------0-----------------0--------|
D|-----5-----------5-----5-----------5-----4-----------4-----4-----------4--|
A|--7-----7-----7-----7-----7-----7-----5-----5-----5-----5-----5-----5-----|
D|--------------------------------------------------------------------------|
        
(slowly release palm muting)
e|--------------------------------------------------------------------------|
B|--------------------------------------------------------------------------|
G|-----------0-----------------0-----------------0-----------------0--------|
D|-----2-----------2-----2-----------2-----2-----------2-----2-----------2--|
A|--3-----3-----3-----3-----3-----3-----0-----0-----0-----0-----0-----0-----|
D|--------------------------------------------------------------------------|

                                                First time only
e|---------------------------------------|----------------------------------|
B|---------------------------------------|----------------------------------|
G|-----------0-----------------0---------|----0-----------------0-----------|
D|-----2-----------2-----2-----------2---|----------2-----------------2-----|
A|--3-----3-----3-----3-----3-----3------|-5-----------------5--------------|
D|--------------------------------------0|-------0--------0--------0--------|
            
Submit corrections


        Stalemate lessons Hard to play? Try these video lessons and learn fast Stalemate lessons
        
↑ Back to top | Tablatures and chords for acoustic guitar and electric guitar, ukulele, drums are parodies/interpretations of the original songs. You may use it for private study, scholarship, research or language learning purposes only