» » »

Enter Shikari - No Sssweat Tabs

Artists:  A B C D E F G H I J K L M N O P Q R S T U V W X Y Z # 

No Sssweat Tabs

(ver. 3) Click to play this song!
Enter Shikari
 Rating:
4/5 (4 votes)

 No Sssweat lessons Tabs too difficult? Try these video lessons and learn fast
 
                -------------------------------------------------------------------------------
                             No Sssweat - Enter Shikari
-------------------------------------------------------------------------------

Tuning: C#

Intro 0:02-0:20
D#|---------------------------------------------------------------------------|
A#|---------------------------------------------------------------------------|
F#|--7-7-7-7--3-3-3-3--6-6-6-6-6-6-6-6----------------------------------------|
C#|--7-7-7-7--3-3-3-3--6-6-6-6-6-6-6-6----------------------------------------|
G#|--5-5-5-5--1-1-1-1--4-4-4-4-4-4-4-4----------------------------------------|
C#|---------------------------------------------------------------------------|

0:21-0:26                       0:25                         0:26-0:36
D#|--------------------------|-------------------------------------------------|
A#|--------------------------|-------------------------------------------------|
F#|----7-7--3-3--6-6--6-6----|---7-7--3-3---6-6--6-6-6-----7~----6--7~---------|
C#|----7-7--3-3--6-6--6-6----|---7-7--3-3---6-6--6-6-6-----7~----6--7~---------|
G#|----5-5--1-1--4-4--4-4----|---5-5--1-1---4-4--4-4-4-----5~----4--5~---------|
C#|--------------------------|-----------------------------0~----0--0~---------|

0:37-0:56
D#|--------------------------------------------------------------------|
A#|--------------------------------------------------------------------|
F#|---7-7-7-7-7-7-7-7--9-9-9-9-9-9-9-9-10-10-10-10-10-10-10-10---------|
C#|---7-7-7-7-7-7-7-7--7-7-7-7-7-7-7-7--8--8--8--8--8--8--8--8---------|
G#|---5-5-5-5-5-5-5-5--7-7-7-7-7-7-7-7--8--8--8--8--8--8--8--8---------|
C#|---0-0-0-0-0-0-0-0--7-7-7-7-7-7-7-7--8--8--8--8--8--8--8--8---------|


D#|------------------------------|
A#|------------------------------|
F#|---10-10-10-10-10-10-10-10----|
C#|---8--8--8--8--8--8--8--8-----|
G#|---8--8--8--8--8--8--8--8-----|
C#|---8--8--8--8--8--8--8--8-----|

0:57-1:20 (only do eight of the above chords before this, instead of 16)                 
                   0:59-1:20
D#|------------------------|-----------------------------|
A#|------------------------|-----------------------------|
F#|------------------------|--7-7----7-7-7----7---5~-----|
C#|------------------------|--7-7----7-7-7----7---5~-----|
G#|---8-8-8-8-8-8-8-8------|--5-5----5-5-5----5---5~-----|
C#|---8-8-8-8-8-8-8-8--7\--|--0-0----0-0-0--0---0--------|
      . . . . . . . .                       .   .

1:21-1:31
D#|--------------------------------------------------------------------|
A#|--------------------------------------------------------------------|
F#|---7-7-7-7-7-7-7-7--9-9-9-9-9-9-9-9-10-10-10-10-10-10-10-10---------|
C#|---7-7-7-7-7-7-7-7--7-7-7-7-7-7-7-7--8--8--8--8--8--8--8--8---------|
G#|---5-5-5-5-5-5-5-5--7-7-7-7-7-7-7-7--8--8--8--8--8--8--8--8---------|
C#|---0-0-0-0-0-0-0-0--7-7-7-7-7-7-7-7--8--8--8--8--8--8--8--8---------|


D#|------------------------------|
A#|------------------------------|
F#|---10-10-10-10-10-10-10-10----|
C#|---8--8--8--8--8--8--8--8-----|
G#|---8--8--8--8--8--8--8--8-----|
C#|---8--8--8--8--8--8--8--8-----|

1:32-2:05  (i like to play an 8 on the d# string when i play the 8/10 bit)
D#|---------------------------------------------------|
A#|---------10-10-10--8--8--8--8--8--8--8-------------|
F#|---------10-10-10--10-10-10-10-10-10-10------------|
C#|----8-8--------------------------------------------|
G#|----8-8--------------------------------------------|
C#|----8-8--------------------------------------------|

D#|---------------------------------------------------------------------------------------|
A#|-----------10-10-10--8--8--8--8--8--8--8-----------------------------------------------|
F#|-----------10-10-10--10-10-10-10-10-10-10-10-10-10-10-10-10--10-10-10-10-10-10---------|
C#|----0-0------------------------------------7--7--7--7--7--7---8--8--8--8--8--8---------|
G#|----0-0------------------------------------8--8--8--8--8--8---8--8--8--8--8--8---------|
C#|----0-0------------------------------------7--7--7--7--7--7---8--8--8--8--8--8---------|

2:06-2:21
D#|---------------------------------------------------------------------------|
A#|---------------------------------------------------------------------------|
F#|--7-7-7-7--3-3-3-3--6-6-6-6-6-6-6-6----------------------------------------|
C#|--7-7-7-7--3-3-3-3--6-6-6-6-6-6-6-6----------------------------------------|
G#|--5-5-5-5--1-1-1-1--4-4-4-4-4-4-4-4----------------------------------------|
C#|---------------------------------------------------------------------------|

2:22-2:26
D#|------------------------------------------------------|
A#|------------------------------------------------------|
F#|----7-7--3-3--6-6--6-6-------7-7--3-3---6-6--6-6-6----|
C#|----7-7--3-3--6-6--6-6-------7-7--3-3---6-6--6-6-6----|
G#|----5-5--1-1--4-4--4-4-------5-5--1-1---4-4--4-4-4----|
C#|------------------------------------------------------|

2:27-2:46
D#|--------------------------------------------------------------------|
A#|--------------------------------------------------------------------|
F#|---7-7-7-7-7-7-7-7--9-9-9-9-9-9-9-9-10-10-10-10-10-10-10-10---------|
C#|---7-7-7-7-7-7-7-7--7-7-7-7-7-7-7-7--8--8--8--8--8--8--8--8---------|
G#|---5-5-5-5-5-5-5-5--7-7-7-7-7-7-7-7--8--8--8--8--8--8--8--8---------|
C#|---0-0-0-0-0-0-0-0--7-7-7-7-7-7-7-7--8--8--8--8--8--8--8--8---------|


D#|------------------------------|
A#|------------------------------|
F#|---10-10-10-10-10-10-10-10----|
C#|---8--8--8--8--8--8--8--8-----|
G#|---8--8--8--8--8--8--8--8-----|
C#|---8--8--8--8--8--8--8--8-----|

2:46-3:09 (again after 8 instead of 16)
D#|------------------------|-----------------------------|
A#|------------------------|-----------------------------|
F#|------------------------|--7-7----7-7-7----7---5~-----|
C#|------------------------|--7-7----7-7-7----7---5~-----|
G#|---8-8-8-8-8-8-8-8------|--5-5----5-5-5----5---5~-----|
C#|---8-8-8-8-8-8-8-8--7\--|--0-0----0-0-0--0---0--------|
                                            .   .
3:10-end
D#|-----------------------------------|
A#|-----------------------------------|
F#|---7-7-7--7-7-7--------------------|
C#|---7-7-7--7-7-7--------------------|
G#|---5-5-5--5-5-5--------------------|
C#|---0-0-0--0-0-0--------------------|

END:) there you have ittt

| /  slide up
| \  slide down
| h  hammer-on
| p  pull-off
| ~  vibrato
| +  harmonic
| x  Mute note
===============================================================================
            
Submit corrections


        No Sssweat lessons Hard to play? Try these video lessons and learn fast No Sssweat lessons
        
↑ Back to top | Tablatures and chords for acoustic guitar and electric guitar, ukulele, drums are parodies/interpretations of the original songs. You may use it for private study, scholarship, research or language learning purposes only