» » »

Enter Shikari - Meltdown Tabs

Artists:  A B C D E F G H I J K L M N O P Q R S T U V W X Y Z # 

Meltdown Tabs

(ver. 2) Click to play this song!
Enter Shikari
 Rating:
4/5 (4 votes)

 Meltdown lessons Tabs too difficult? Try these video lessons and learn fast
 
                Band: Enter Shikari
Tuning: Drop C


x-dead note
h-hammer on
p-pull off
/-slide

Took a lot from grave robbers tab but a few things that I wanted to change



Intro x2
D|----------|
A|----------|
F|----------|
C|-0~-------|   second time round bend behind the nut
G|-0~-------|
C|-0~-------|

Intro Part 2 x1
D|----------------------------------------------------------------------|
A|----------------------------------------------------------------------|
F|----------------------------------------------------------------------|
C|-1212121212121212-1212121212121212-1212121212121212-22222222-33333333-|
G|-1212121212121212-1010101010101010-8-8-8-8-8-8-8-8--22222222-33333333-|
C|-1212121212121212-1010101010101010-8-8-8-8-8-8-8-8--22222222-33333333-|


cont


D|------------------------------------------------------------------|
A|------------------------------------------------------------------|
F|------------------------------------------------------------------|
C|-55555555---------------------------------------------------------|
G|-55555555---------------------------------------------------------|
C|-55555555---------------------------------------------------------|

Breakdown x8
D|----------------------------------------------------------------------|
A|----------------------------------------------------------------------|
F|----------------------------------------------------------------------|
C|----------------------------------------------------------------------|
G|-0--0--000--000~0-----------------------------------------------------|
C|-0--0--000--000~0-----------------------------------------------------|



Pre-Chorus x3


D|------------------------------------------------------------------------|
A|------------------------------------------------------------------------|
F|------------------------------------------9h10p9h10p9h10----------------|
C|-----------------------15p0-14p0-12p0-10p0------------------------------|
G|-0-0-000----------------------------------------------------------------|
C|-0-0-000/12-1212-0-00---------------------------------------------------|
PM

Chorus lead in

D|------------------------------------------------------|
A|------------------------------------------------------|
F|------------------------------------------------------|
C|-555555557777777788888888111111111111-----------------|
G|-555555557777777788888888111111111111-----------------|
C|-555555557777777788888888111111111111-----------------|


Chorus x4
D|--------------------------------------------|
A|--------------------------------------------|
F|-----------7777------33333333---------------|
C|-00000000--5555------33333333--2222---------|
G|-00000000--3333------11111111--2222---------|
C|-00000000----------------------2222---------|

D|----------------------------------------------------------------------|
A|----------------------------------------------------------------------|
F|----------------------------------------------------------------------|
C|-1212121212121212-1212121212121212-1212121212121212-22222222-33333333-|
G|-1212121212121212-1010101010101010-8-8-8-8-8-8-8-8--22222222-33333333-|
C|-1212121212121212-1010101010101010-8-8-8-8-8-8-8-8--22222222-33333333-|


cont


D|------------------------------------------------------------------|
A|------------------------------------------------------------------|
F|------------------------------------------------------------------|
C|-55555555---------------------------------------------------------|
G|-55555555---------------------------------------------------------|
C|-55555555---------------------------------------------------------|


Breakdown x8
D|----------------------------------------------------------------------|
A|----------------------------------------------------------------------|
F|----------------------------------------------------------------------|
C|----------------------------------------------------------------------|
G|-0--0--000--000~0-----------------------------------------------------|
C|-0--0--000--000~0-----------------------------------------------------|


Pre-Chorus x3


D|------------------------------------------------------------------------|
A|------------------------------------------------------------------------|
F|------------------------------------------9h10p9h10p9h10----------------|
C|-----------------------15p0-14p0-12p0-10p0------------------------------|
G|-0-0-000----------------------------------------------------------------|
C|-0-0-000/12-1212-0-00---------------------------------------------------|
PM



Chorus lead in

D|------------------------------------------------------|
A|------------------------------------------------------|
F|------------------------------------------------------|
C|-555555557777777788888888111111111111-----------------|
G|-555555557777777788888888111111111111-----------------|
C|-555555557777777788888888111111111111-----------------|


Chorus x4
D|--------------------------------------------|
A|--------------------------------------------|
F|-----------7777------33333333---------------|
C|-00000000--5555------33333333--2222---------|
G|-00000000--3333------11111111--2222---------|
C|-00000000----------------------2222---------|



D|----------------------------------------------------------------------|
A|----------------------------------------------------------------------|
F|----------------------------------------------------------------------|
C|-1212121212121212-1212121212121212-1212121212121212-22222222-33333333-|
G|-1212121212121212-1010101010101010-8-8-8-8-8-8-8-8--22222222-33333333-|
C|-1212121212121212-1010101010101010-8-8-8-8-8-8-8-8--22222222-33333333-|


cont


D|------------------------------------------------------------------|
A|------------------------------------------------------------------|
F|------------------------------------------------------------------|
C|-55555555---------------------------------------------------------|
G|-55555555---------------------------------------------------------|
C|-55555555---------------------------------------------------------|



Outro x4
D|---------------------------------------------------------------|
A|---------------------------------------------------------------|
F|---------------------------------------------------------------|
C|-----------------------8----3----------------------------------|
G|-----------------------8----3----------------------------------|
C|-0--------/12-1212p0---8----3----------------------------------|
            
Submit corrections


        Meltdown lessons Hard to play? Try these video lessons and learn fast Meltdown lessons
        
↑ Back to top | Tablatures and chords for acoustic guitar and electric guitar, ukulele, drums are parodies/interpretations of the original songs. You may use it for private study, scholarship, research or language learning purposes only