» » »

Enter Shikari - Labyrinth Tabs

Artists:  A B C D E F G H I J K L M N O P Q R S T U V W X Y Z # 

Labyrinth Tabs

(ver. 2) Click to play this song!
Enter Shikari
 Rating:
4/5 (4 votes)

 Labyrinth lessons Tabs too difficult? Try these video lessons and learn fast
 
                Intro/Chorus
eb|--xxx--x--x--------x--------x-------------------x--x--x--------x--------x---------------------------|
Bb|--xxx--x--x--------x--------x-------------------x--x--x--------x--------x---------------------------|
Gb|--xxx--7--x--------x--------x-------------------x--7--x--------x--------x---------------------------|
Db|--xxx--x--x--8--8--x--3--3--x--5---3--5--3---0--x--x--x--8--8--x--3--3--x--5---3--5-----------------|
Ab|--xxx--5--x--8--8--x--3--3--x--5---3--5--3---0--x--5--x--8--8--x--3--3--x--5---3--5-----------------|
Db|--xxx--x--x--8--8--x--3--3--x--5---3--5--3---0--x--x--x--8--8--x--3--3--x--5---3--5-----------------|
(X2)

Verse
eb|--x-x-x--x-x-x-x----x-x-x--x-x-x-x----x--x--x---x--x--x--x----x--x--x--x----x--x--x--x----|
Bb|--x-x-x--x-x-x-x----x-x-x--x-x-x-x----x--x--x---x--x--x--x----x--x--x--x----x--x--x--x----|
Gb|--7-7-7--7-7-7-7----9-9-9--9-9-9-9----10-10-10--10-10-10-10---14-14-14-14----12-12-12-12--|
Db|--x-x-x--x-x-x-x----x-x-x--x-x-x-x----x--x--x---x--x--x--x----x--x--x--x----x--x--x--x----|
Ab|--5-5-5--5-5-5-5----7-7-7--7-7-7-7----8--8--8---8--8--8--8----12-12-12-12----10-10-10-10--|
Db|--x-x-x--x-x-x-x----x-x-x--x-x-x-x----x--x--x---x--x--x--x----x--x--x--x------------------|

eb|---x-x-x--x-x-x-x----x-x-x--x-x-x-x----x--x--x--x--x---x--x--x---x--x--x---|
Bb|---x-x-x--x-x-x-x----x-x-x--x-x-x-x----x--x--x--x--x---x--x--x---x--x--x---|
Gb|---7-7-7--7-7-7-7----9-9-9--9-9-9-9----17-17-17-17-17--15-15-15--14-14-14--|
Db|---x-x-x--x-x-x-x----x-x-x--x-x-x-x----x--x--x--x--x---x--x--x---x--x--x---|
Ab|---5-5-5--5-5-5-5----7-7-7--7-7-7-7----15-15-15-15-15--13-13-13--12-12-12--|
Db|---x-x-x--x-x-x-x----x-x-x--x-x-x-x----x--x--x--x--x---x--x--x---x--x--x---|(X2)

eb|---x-x-x-x-x-x-x-x----x-x-x-x-x-x-x--|
Bb|---x-x-x-x-x-x-x-x----x-x-x-x-x-x-x--|
Gb|---7-7-7-7-7-7-7-7----9-9-9-9-9-9-9--|
Db|---x-x-x-x-x-x-x-x----x-x-x-x-x-x-x--|
Ab|---5-5-5-5-5-5-5-5----7-7-7-7-7-7-7--|
Db|---x-x-x-x-x-x-x-x----x-x-x-x-x-x-x--|
Then Straight into Chorus
            
Submit corrections


        Labyrinth lessons Hard to play? Try these video lessons and learn fast Labyrinth lessons
        
↑ Back to top | Tablatures and chords for acoustic guitar and electric guitar, ukulele, drums are parodies/interpretations of the original songs. You may use it for private study, scholarship, research or language learning purposes only