Home » E » Enter Shikari »

Enter Shikari - Kickin Back On The Surface Of Your Cheek Tabs

Artists:  A B C D E F G H I J K L M N O P Q R S T U V W X Y Z # 

Kickin Back On The Surface Of Your Cheek Tabs

(ver. 1) Click to play this song!
Enter Shikari
 Rating:
4/5 (4 votes)
                Enter Shikari


Tuned Flat Then Put In Drop D

Intro Part 1

d#------------------|
A#------------------|
F#--7~--------------| you can play this part with a high pitch or low
C#-----7~-3~-5~-----| pitch just use these notes
G#--------------5~--|
C#------------------| x2

Intro Part 2

d#----------------------------|
A#--666--5--33~-----10~---8~--|
F#--XXX--X--XX~-----x ~---x~--|
C#--888--7--55~-----12~---10~-|
G#----------------------------|
C#----------------------------| x2

Verse

d#---------------------------------|
A#---------------------------------|
F#--777777-------------------------|
C#--777777--777777--333333--555555-|
G#--555555--777777--333333--555555-|
C#----------777777--333333--555555-| x4

Chorus

d#----------------------------------|
A#----------------------------------|
F#--77-7-7~-------------------------|
C#--77-7-7~-77-7-7~-33-3-3~-55-5-5~-|
G#--55-5-5~-77-7-7~-33-3-3~-55-5-5~-|
C#----------77-7-7~-33-3-3~-55-5-5~-| x2

Verse 2 Part 1

d#----------12~---------|
A#--12~---------19~-15~-|
F#------12~-------------|
C#----------------------|
G#----------------------|
C#----------------------| x2

Verse 2 Part 2

d#----------------------------|
A#--666--5--33~-----10~---8~--|
F#--XXX--X--XX~-----x ~---x~--|
C#--888--7--55~-----12~---10~-|
G#----------------------------|
C#----------------------------| x2

Verse 2 Part 3

d#---------------------------------|
A#---------------------------------|
F#--777777-------------------------|
C#--777777--777777--333333--555555-|
G#--555555--777777--333333--555555-|
C#----------777777--333333--555555-| x2

Chorus

d#----------------------------------|
A#----------------------------------|
F#--77-7-7~-------------------------|
C#--77-7-7~-77-7-7~-33-3-3~-55-5-5~-|
G#--55-5-5~-77-7-7~-33-3-3~-55-5-5~-|
C#----------77-7-7~-33-3-3~-55-5-5~-| x2

Interlude

d#------------|
A#------------|
F#------------|
C#-0~---------|
G#-0~---------|
C#-0~---------|

clean bit
d#------------------------------------|
A#------------------------------------|
F#-7-7-777--5-5-555--4-4-444--5-5-555-|  < play lightly
C#-x-x-xxx--x-x-xxx--x-x-xxx--x-x-xxx-|
G#-5-5-555--3-3-333--2-2-222--3-3-333-|
C#------------------------------------| x4

Breakdown

d#--------------------------|
A#--------------------------|
F#--------------------------|
C#-000-12b-0-12b-1010101010-|
G#-000-12b-0-12b-1010101010-|
C#-000-12b-0-12b-1010101010-| 

d#-----------------------------|
A#--7bu8r7----7bu8r7-----------|
F#---------7---------7--7bu9r7-|
C#-----------------------------|
G#-----------------------------|
C#-----------------------------|

d#--------------------------|
A#--------------------------|
F#--------------------------|
C#-000-12b-0-12b-1010101010-|
G#-000-12b-0-12b-1010101010-|
C#-000-12b-0-12b-1010101010-|


    R    L  R    L  R    L  R    L  R    L  R    L   R     L

d#------------------------------------------------------------|
A#-h7po3h5-h7po3h5-h7po3h5-h8po3h5-h8po3h5-h10po3h5-h10po3h5--|
F#------------------------------------------------------------|
C#------------------------------------------------------------|
G#------------------------------------------------------------|
C#------------------------------------------------------------| x2

d#--------------------------|
A#--------------------------|
F#--------------------------|
C#-000-12b-0-12b-1010101010-|
G#-000-12b-0-12b-1010101010-|
C#-000-12b-0-12b-1010101010-|

d#-----------------------------|
A#--7bu8r7----7bu8r7-----------|
F#---------7---------7--7bu9r7-|
C#-----------------------------|
G#-----------------------------|
C#-----------------------------|

d#---------------------------|
A#---------------------------|
F#---------------------------|
C#-000-12b-0-12b-------10\0~-|
G#-000-12b-0-12b-pause-10\0~-|
C#-000-12b-0-12b-------10\0~-|


     
Outro

d#---------------------------------------55555-|
A#----------------------------10XX10-----77777-|
F#----------------------------x XXx------00000-|
C#-000-12-00-12\10~-9v~-999~--12XX12--7~-------|
G#-000-12-00-12\10~-----999~----------7~-------|  play until it fades out
C#-000-12-00-12\10~-----999~----------7~-------|  completely


|/  slide up
| \  slide down
| h  hammer-on
| po  pull-off
| v  vibrato
| ~  let ring
| x  Mute note
|R   right hand tap
|L   left hand tap
            
Submit corrections

↑ Back to top | Tablatures and chords for acoustic guitar and electric guitar, ukulele, drums are parodies/interpretations of the original songs. You may use it for private study, scholarship, research or language learning purposes only