» » »

Enter Shikari - Hectic Tabs

Artists:  A B C D E F G H I J K L M N O P Q R S T U V W X Y Z # 

Hectic Tabs

(ver. 1) Click to play this song!
Enter Shikari
 Rating:
4/5 (4 votes)

 Hectic lessons Tabs too difficult? Try these video lessons and learn fast
 
                
Tuning: Drop C (DAFCGC)


After staying up all night and drinking a bunch of tea and sugar me and my cousin tabbed
this song. So I'm not taking full credit for this, because he
helped me to >.>
We tabbed this with the intention of the guitar having no breaks. Not all of these are
parts, but we wanted to make it to where your playing something
throughout the entire song. The first Chorus build up isn't in the studio
as far as I could hear, but I've heard it from the live version.

Update: Within the past 3 days I changed this quite a bit. One of the verse chords I put
their wrong. And I changed the outro to synth since I realized there really wasn't
in it. However, when I tabbed the outro, my guitar was in standard, so I hope it's 
I'm a bit sketchy on the synth part.


Enjoy!!!


D|--------------------------|
A|--------------------------|
F|--9-----11----13----14----| Intro
C|--x------x-----x-----x----|
G|--7------9----11----12----|
C|---x8-----x8----x8----x8--| x2

D|----------------------------------------------------------|
A|----------------------------------------------------------|
F|--9-----11----13----14-----13----14----16----18-----------|
C|--x------x-----x-----x------x-----x-----x-----x-----------| Intro Part 2
G|--7------9----11----12-----11----12----14----16------12~--|
C|---x8-----x8----x8----x8-----x8----x8----x8----x8---------|

Dreamy Breakdown
D|-7---10-9---12-10---14-15-14----7---10-9---12-10---5-3-|
A|-------------------------------------------------------|
F|-------------------------------------------------------|
C|-------------------------------------------------------| Piano(tabbed for guitar)
G|-------------------------------------------------------|
C|-------------------------------------------------------|

Or

D|-5----9-7---12-12---12-14-12----5----9-7---10--9---3-2-|
A|-7---10-9---12-10---14-15-14----7---10-9---12-10---5-3-|
F|-------------------------------------------------------|
C|-------------------------------------------------------| Piano(tabbed for guitar)
G|-------------------------------------------------------|
C|-------------------------------------------------------|

D|-5-5---9---7-7---12---12-12---12--14--14--12--|
A|-7-7--10---9-9---12---12-12---14--15--15--14--|
F|----------------------------------------------| Synth Build Up(tabbed for guitar)
C|----------------------------------------------|
G|----------------------------------------------|
C|----------------------------------------------|

D|-5-5---9---7-7---12---12-12----3--2--2--2--|
A|-7-7--10---9-9---12---12-12----5--3--3--3--|
F|-------------------------------------------| Synth Build Up Part 2(tabbed for guitar)
C|-------------------------------------------|
G|-------------------------------------------|
C|-------------------------------------------|

Chorus Build Up
D|--------------------------------------------------------------------------|
A|--------------------------------------------------------------------------|
F|--------------------------------------------------------------------------|
C|--------------------------------------------------------------------------|
G|--------------------------------------------------------------------------|
C|-4-4-4-4-4-4-7-7-6-6-6-6-6-6-9-9-7-7-7-7-7-7-11-11-12-12-12-12-11-11-11-11|

D|------------------------------------------------------------------|
A|------------------------------------------------------------------|
F|------------------------------------------------------------------|
C|------------------------------------------------------------------|
G|------------------------------------------------------------------|
C|-4-4-4-4-4-4-7-7-6-6-6-6-6-6-9-9-7-7-7-7-7-7-2-2-0-0-0-0-0-0-0-0--|

D|----------------------------------------------------------------------------------|
A|----------------------------------------------------------------------------------|
F|-7--6-6--------------6----------------------7--6-6--------------6-----------------|
C|-4--4-4----9--9-7----x--9-9-----------------4--4-4----9--9-7----x--9-9----7--6-7--| Chorus
G|-4--4-4----7--7-7----7--7-7----12--11-12----4--4-4----7--7-7----7--7-7----0--0-0--|
C|-4--4-4----6--6-6----7--7-7----12--11-12----4--4-4----6--6-6----7--7-7----0--0-0--| x2

Or

D|-------------------------------------------------------------|
A|-------------------------------------------------------------|
F|-7----------------6---------------7-------------6------------|
C|-4-------9--------x---------------4------9------x-------7----| Chorus
G|-4-------7--------7-------12------4------7------7-------0----|
C|-4-x8----6-x8-----7-x8----12-x8---4-x8---6-x8---7-x8----0-x8-| x2

Verse Riff
D|----------------------------------------------------------------------------------------|
A|----------------------------------------------------------------------------------------|
F|-19-19-19---18-18-18----16-16-16---16-16-16---16-16-16---18-18-18---14-14-14---14-14-14-|
C|--x--x--x----x--x--x-----x--x--x----x--x--x----x--x--x----x--x--x----x--x--x----x--x--x-|
G|-17-17-17---16-16-16----14-14-14---14-14-14---14-14-14---16-16-16---12-12-12---12-12-12-|
C|----------------------------------------------------------------------------------------|

D|--------------------------------------------------------------------------------------------|
A|--------------------------------------------------------------------------------------------|
F|-19-19-19--18-18-18---16-16-16---16-16-16---19-19-19\18-18-18-18\16-16\14-14-14-14-14-14/19-|
C|--x--x--x---x--x--x----x--x--x----x--x--x----x--x--x\-x--x--x--x\-x--x\-x--x--x--x--x--x/-x-|
G|-17-17-17--16-16-16---14-14-14---14-14-17---17-17-17\16-16-16-16\14-14\12-12-12-12-12-12/17-|
C|--------------------------------------------------------------------------------------------|

D|----------------------------------------------------------------------------------------|
A|----------------------------------------------------------------------------------------|
F|-19-19-19---18-18-18----16-16-16---16-16-16---16-16-16---18-18-18---14-14-14---14-14-14-|
C|--x--x--x----x--x--x-----x--x--x----x--x--x----x--x--x----x--x--x----x--x--x----x--x--x-|
G|-17-17-17---16-16-16----14-14-14---14-14-14---14-14-14---16-16-16---12-12-12---12-12-12-|
C|----------------------------------------------------------------------------------------|

D|-------------------------------------------------------------------------|
A|-------------------------------------------------------------------------|
F|-19-19-19--18-18-18---16-16-16---16-16-16---16/14-14-14---16-16---14-14--|
C|--x--x--x---x--x--x----x--x--x----x--x--x----x/-x--x--x----x--x----x--x--|
G|-17-17-17--16-16-16---14-14-14---14-14-14---14/12-12-12---14-14---12-12--|
C|-------------------------------------------------------------------------|

"Oh if I could Kidnap that feeling..."
D|-7---10-9---12-10---14-15-14----7---10-9---12-10---5-3-|
A|-------------------------------------------------------|
F|-------------------------------------------------------|
C|-------------------------------------------------------| Piano(tabbed for guitar)
G|-------------------------------------------------------|
C|-------------------------------------------------------|

Or

D|-5----9-7---12-12---12-14-12----5----9-7---10--9---3-2-|
A|-7---10-9---12-10---14-15-14----7---10-9---12-10---5-3-|
F|-------------------------------------------------------|
C|-------------------------------------------------------| Piano(tabbed for guitar)
G|-------------------------------------------------------|
C|-------------------------------------------------------|

Chorus Build Up
D|--------------------------|
A|--------------------------|
F|--9-----11----13----14----|
C|--x------x-----x-----x----|
G|--7------9----11----12----|
C|---x8-----x8----x8----x8--| x2

D|-------------------------------------------------------|
A|-------------------------------------------------------|
F|--9-----11----13----14-----13----14----16----18--------|
C|--x------x-----x-----x------x-----x-----x-----x--------|
G|--7------9----11----12-----11----12----14----16--------|
C|---x8-----x8----x8----x8-----x8----x8----x8----x8------|

D|---------------------17-17-17-17-17--|
A|---------------------20-20-20-20-20--|
F|-18-----19----21---------------------|
C|--x------x-----x---------------------|
G|-16-----17----19---------------------|
C|---x24----x8----x16------------------|

Chorus
D|----------------------------------------------------------------------------------|
A|----------------------------------------------------------------------------------|
F|-7--6-6--------------6----------------------7--6-6--------------6-----------------|
C|-4--4-4----9--9-7----x--9-9-----------------4--4-4----9--9-7----x--9-9----7--6-7--|
G|-4--4-4----7--7-7----7--7-7----12--11-12----4--4-4----7--7-7----7--7-7----0--0-0--|
C|-4--4-4----6--6-6----7--7-7----12--11-12----4--4-4----6--6-6----7--7-7----0--0-0--|

D|-----------------------------------------------------------------|
A|-----------------------------------------------------------------|
F|-7--6-6--------------6----------------------7--6-6---------------|
C|-4--4-4----9--9-7----x--9-9-----------------4--4-4----9--9-7-----|
G|-4--4-4----7--7-7----7--7-7----12--11-12----4--4-4----7--7-7-----|
C|-4--4-4----6--6-6----7--7-7----12--11-12----4--4-4----6--6-6-----|

Or

D|-------------------------------------------------------------|
A|-------------------------------------------------------------|
F|-7----------------6---------------7-------------6------------|
C|-4-------9--------x---------------4------9------x-------7----| Chorus
G|-4-------7--------7-------12------4------7------7-------0----|
C|-4-x8----6-x8-----7-x8----12-x8---4-x8---6-x8---7-x8----0-x8-|

D|-------------------------------------------------|
A|-------------------------------------------------|
F|-7----------------6---------------7--------------|
C|-4-------9--------x---------------4------9-------| Chorus
G|-4-------7--------7-------12------4------7-------|
C|-4-x8----6-x8-----7-x8----12-x8---4-x8---6-x8----|

D|--12-12--3--2-2-2--|
A|--12-12--5--3-3-3--|
F|-------------------| Synth Outro
C|-------------------|
G|-------------------|
C|-------------------|


The End :D
As for the rest of the songs on this album, your all on your own again ;p

| /  slide up
| \  slide down
| h  hammer-on
| p  pull-off
| ~  vibrato
| +  harmonic
| x  Mute note
            
Submit corrections


        Hectic lessons Hard to play? Try these video lessons and learn fast Hectic lessons
        
↑ Back to top | Tablatures and chords for acoustic guitar and electric guitar, ukulele, drums are parodies/interpretations of the original songs. You may use it for private study, scholarship, research or language learning purposes only