» » »

Enter Shikari - Gap In The Fence Tabs

Artists:  A B C D E F G H I J K L M N O P Q R S T U V W X Y Z # 

Gap In The Fence Tabs

(ver. 2) Click to play this song!
Enter Shikari
 Rating:
4.3/5 (6 votes)

 Gap In The Fence lessons Tabs too difficult? Try these video lessons and learn fast
 
                        This is the tab as promised for Gap In The Fence by Enter Shikari, cheers for all the
this is how I play it in the video plus some corrections ive made since,  enjoy! sorry

INTRO (OVER AND OVER LIKE THIS) 0:03-01:25 - time of album track
d-7-----5-------0--------5-----------|
a---8-------8--------8-------8-------|
f-----0-------0--------0-------0-----|
c------------------------------------|
g-7-------7--------7-------7---------|
c------------------------------------|


d-7-----5-------0--------5-----------|
a---8-------8--------8-------8-------|
f-----0-------0--------0-------0-----|
c-0-------0--------0-------0---------|
g------------------------------------|
c------------------------------------|

d-7--------------------------0---------|
a---8---10---8------10--8---------8----|
f-----0------- 0-----------0--------0--|
c--------------------------------------|
g--------------------------------------|
c-9--------9--------10---------10------|

d-7-----5-------0--------5-----------|
a---8-------8--------8-------8-------|
f-----0-------0--------0-------0-----|
c------------------------------------|
g-7-------7--------7-------7---------|
c------------------------------------|

1:25-1:36

d-7-----5-------0--------5-------------|
a---8-------8--------8-------8---8-----|
f-----0-------0--------0-------0-------|
c--------------------------------------|
g-7-------7--------7-------7-----------|
c--------------------------------------|

let this next bit sparkle
d--------12---------------------12-----------------12---------------|
a--12--------12-------12-12--------12-------12-----12---------------|
f-----12---------12---12-12--12-------12-------12--12---------------|
c-------------------------------------------------------------------|
g-------------------------------------------------------------------|
c-------------------------------------------------------------------|

gentle - let last chord ring out
d--12---12-12-15h12-12-12-12----|
a--12---12-12-12----12-12-12----|
f--12---12-12-12----12-12-12----|
c-------------------------------|
g-------------------------------|
c-------------------------------|

chord section ( very soft strumming - x= muted strum, the dashes indicate sliding
between the chords ) 1:36-2:29
(x2- on the second time do not play the last chord on the third fret before the drop)

d--7--7---10-10-----15--15-15-15--15-15-15------|
a--8--8---10-10--x--15--15-15-15--15-15-15------|
f--0--0---0--0---x--0---0--0--0---0--0--0-------|
c--x--x---x--x---x--x---x--x--x---x--x--x-------|
g--7--7---10-10--x--15--15-15-15--15-15-15------|
c-----------------------------------------------|

d--7--7---10-10-----15--15-15-15--15-15-15------|
a--8--8---10-10--x--15--15-15-15--15-15-15------|
f--0--0---0--0---x--0---0--0--0---0--0--0-------|
c--x--x---x--x---x--x---x--x--x---x--x--x-------|
g--7--7---10-10--x--15--15-15-15--15-15-15------|
c-----------------------------------------------|

d--7--7---10-10-----15--15-15-15--15-15-15------|
a--8--8---10-10--x--15--15-15-15--15-15-15------|
f--0--0---0--0---x--0---0--0--0---0--0--0-------|
c--x--x---x--x---x--x---x--x--x---x--x--x-------|
g--7--7---10-10--x--15--15-15-15--15-15-15------|
c-----------------------------------------------|

d--7--7---5--5------15--15-15-15--15-15-15------|
a--8--8---7--7--x---15--15-15-15--15-15-15------|
f--0--0---0--0--x---0---0--0--0---0--0--0-------|
c--x--x---x--x--x---0---0--0--0---0--0--0-------|
g--7--7---5--5--x---x---x--x--x---x--x--x-------|
c-------------------10--10-10-10--10-10-10------|

d--7--7---10-10-----15--15-15-15--15-15-15------|
a--8--8---10-10--x--15--15-15-15--15-15-15------|
f--0--0---0--0---x--0---0--0--0---0--0--0-------|
c--x--x---x--x---x--x---x--x--x---x--x--x-------|
g--7--7---10-10--x--15--15-15-15--15-15-15------|
c-----------------------------------------------|

d--7--7---10-10-----15--15-15-15--15-15-15------|
a--8--8---10-10--x--15--15-15-15--15-15-15------|
f--0--0---0--0---x--0---0--0--0---0--0--0-------|
c--x--x---x--x---x--x---x--x--x---x--x--x-------|
g--7--7---10-10--x--15--15-15-15--15-15-15------|
c-----------------------------------------------|

d--7--7---10-10-----15--15-15-15--15-15-15------|
a--8--8---10-10--x--15--15-15-15--15-15-15------|
f--0--0---0--0---x--0---0--0--0---0--0--0-------|
c--x--x---x--x---x--x---x--x--x---x--x--x-------|
g--7--7---10-10--x--15--15-15-15--15-15-15------|
c-----------------------------------------------|

d--7--7---5--5------3---3--3--3---3--3--3-------|
a--8--8---7--7--x---3---3--3--3---3--3--3-------|
f--0--0---0--0--x---0---0--0--0---0--0--0-------|
c--x--x---x--x--x---x---x--x--x---x--x--x-------|
g--7--7---5--5--x---3---3--3--3---3--3--3-------|
c-----------------------------------------------|

2:31-3:25 -DROP CHORDS (x4)

d-7---7--7-7-7/10-10--10--10/15--15--15--15---15--15---15-15--|
a-0---0--0-0-0-0--0---0---0--0---0---0---0----0---0----0--0---|
f-0---0--0-0-0-0--0---0---0--0---0---0---0----0---0----0--0---|
c-x---x--x-x-x-x--x---x---x--x---x---x---x----x---x----x--x---|
g-7---7--7-7-7/10-10--10--10/15--15--15--15---15--15---15-15--|
c-------------------------------------------------------------|

d-7---7--7-7-7/10-10--10--10/15--15--15--15---15--15---15-15--|
a-0---0--0-0-0-0--0---0---0--0---0---0---0----0---0----0--0---|
f-0---0--0-0-0-0--0---0---0--0---0---0---0----0---0----0--0---|
c-x---x--x-x-x-x--x---x---x--x---x---x---x----x---x----x--x---|
g-7---7--7-7-7/10-10--10--10/15--15--15--15---15--15---15-15--|
c-------------------------------------------------------------|

d-7---7--7-7-7/10-10--10--10/15--15--15--15---15--15---15-15--|
a-0---0--0-0-0-0--0---0---0--0---0---0---0----0---0----0--0---|
f-0---0--0-0-0-0--0---0---0--0---0---0---0----0---0----0--0---|
c-x---x--x-x-x-x--x---x---x--x---x---x---x----x---x----x--x---|
g-7---7--7-7-7/10-10--10--10/15--15--15--15---15--15---15-15--|
c-------------------------------------------------------------|

d-7---7--7-7-7-5--5---5---3---3---3---3----3----3----3--3--|
a-0---0--0-0-0-0--0---0---0---0---0---0----0----0----0--0--|
f-0---0--0-0-0-0--0---0---0---0---0---0----0----0----0--0--|
c-x---x--x-x-x-x--x---x---x---x---x---x----x----x----x--x--|
g-7---7--7-7-7-5--5---5---3---3---3---3----3----3----3--3--|
c----------------------------------------------------------|

3:26

d--3---3--3-3-3--3-3---3--3--3--3----3----3--3--3--3--3--3--3--3---|
a--0---0--0-0-0--0-0---0--0--0--0----0----0--0--0--0--0--0--0--0---|
f--x---x--x-x-x--x-0---0--0--0--0----0----0--0--0--0--0--0--0--0---|
c--2---2--2-2-2--2-x---x--x--x--x----x----x--x--x--x--x--x--x--x---|
g--0---0--0-0-0--0-2---2--2--2--2p0--2p0--2--3--3--3--3--3--3--3---|
c------------------------------------------------------------------|

d--3--3--3-3-3--5--5--5-----|
a--0--0--0-0-0--0--0--0-----|
f--0--0--0-0-0--0--0--0-----|
c--x--x--x-x-x--x--x--x-----|
g--3--3--3-3-3--5--5--5-----|
c---------------------------|

d--3---3--3-3-3--3-3---3--3--3--3----3----3--3--3--3--3--3--3--3---|
a--0---0--0-0-0--0-0---0--0--0--0----0----0--0--0--0--0--0--0--0---|
f--x---x--x-x-x--x-0---0--0--0--0----0----0--0--0--0--0--0--0--0---|
c--2---2--2-2-2--2-x---x--x--x--x----x----x--x--x--x--x--x--x--x---|
g--0---0--0-0-0--0-2---2--2--2--2p0--2p0--2--3--3--3--3--3--3--3---|
c------------------------------------------------------------------|

d--3--3--3-3-3--10-10-10----|
a--0--0--0-0-0--0--0--0-----|
f--0--0--0-0-0--0--0--0-----|
c--x--x--x-x-x--x--x--x-----|
g--3--3--3-3-3--10-10-10----|
c---------------------------|

d--3---3--3-3-3--3-3--|
a--0---0--0-0-0--0-0--|
f--x---x--x-x-x--x-0--| let the last chord ring out
c--2---2--2-2-2--2-x--|
g--0---0--0-0-0--0-2--|
c---------------------|
            
Submit corrections


        Gap In The Fence lessons Hard to play? Try these video lessons and learn fast Gap In The Fence lessons
        
↑ Back to top | Tablatures and chords for acoustic guitar and electric guitar, ukulele, drums are parodies/interpretations of the original songs. You may use it for private study, scholarship, research or language learning purposes only