» » »

Enter Shikari - Empty Tabs

Artists:  A B C D E F G H I J K L M N O P Q R S T U V W X Y Z # 

Empty Tabs

(ver. 3) Click to play this song!
Enter Shikari
 Rating:
4.2/5 (5 votes)

 Empty lessons Tabs too difficult? Try these video lessons and learn fast
 
                -------------------------------------------------------------------------------
                             SONG NAME - Band Name
-------------------------------------------------------------------------------

Tuning:DADGBe
intro verse
e|--------------------------------------------------------------------------|
B|--------------------------------------------------------------------------|
G|--------------------------22222------------1111111111---------------------|
D|--4--4---0------44444444--22222---7777777--1111111111---------------------|
A|--4--4---0------44444444--00000---7777777--99999--------------------------|
D|--4--4---0------44444444--00000---7777777--99999--------------------------|
repeat without the starting twice (play the eleven with the nine)

e|--------------------------------------------------------------------------|
B|--------------------------------------------------------------------------|
G|---------6-6--6h76--------------------------------------------------------|
D|----7-6-------------7-7x-9-9x-999-----------------------------------------|
A|--------------------7-7x-9-9x-999-----------------------------------------|
D|--------------------7-7x-9-9x-999-----------------------------------------|
 play twice
e|--------------------------------------------------------------------------|
B|--------------------------------------------------------------------------|
G|---------------1111--111111-----------------------------------------------|
D|--000-000-000-------------------------------------------------------------|
A|--000-000-000-------------------------------------------------------------|
E|--000-000-000-----------------10-10-9-9-99--------------------------------|

e|--------------------------------------------------------------------------|
B|--------------------------------------------------------------------------|
G|--------------------------------------------------------------------------|
D|--4x5x7x4-55--10-10-02-2-0200---------------------------------------------|
A|--------------10-10-02-2-0200---------------------------------------------|
E|--------------10-10-02-2-0200---------------------------------------------|
repeat both these peices twice

chorus
e|---10--------10-----------------------------------------------------------|
B|---8---------8------------------------------------------------------------|
G|---7---------7------------------------------------------------------------|
D|---0---------0---9-1412-9-1412-10-9-0---9-1412-9-10-9------0--------------|
A|------------------------------------------------------10-9----------------|
D|--------------------------------------------------------------------------|
 the solo in the chorus has to be on one string to give the right sound.
it also plays with the bass which makes it difficult to play along but im sure u will get it in the end.
e|-------------------------------------------------------------------------------------|
B|-------------------------------------------------------------------------------------|
G|-------------------------------------------------------------------------------------|
D|---10-10-101010-1010101010--9-9-999-999-99999---101010-1010101010--9-9-999-999-99999-|
A|---10-10-101010-1010101010--9-9-999-999-99999---101010-1010101010--9-9-999-999-99999-|
D|---10-10-101010-1010101010--9-9-999-999-99999---101010-1010101010--9-9-999-999-99999-|
listen to the rythem for this part
the song then repeats itself again then the ending is different

e|--------------------9-----------------------------------------------------|
B|----------------8------8--------------------------------------------------|
G|--------------7---7-------------------------------------------------------|
D|--4-4--0------------------------------------------------------------------|
A|--4-4--0------------------------------------------------------------------|
E|--4-4--0------------------------------------------------------------------|
it repeats the next bit alot but i cant be boverd to write it

e|--------------------------------------------------------------------------|
B|--------------------------------------------------------------------------|
G|--------------------------------------------------------------------------|
D|---55555-44444--4-5-744----------------4-5-7-4-55---10-10-0-2-2-0-2-0-0---|
A|---55555-44444--------------------------------------10-10-0-2-2-0-2-0-0---|
E|---55555-44444------------55555-44444---------------10-10-0-2-2-0-2-0-0---|
it repeats this 8 times but the ending part is slightly different as shown above

| /  slide up
| \  slide down
| h  hammer-on
| p  pull-off
| ~  vibrato
| +  harmonic
| x  Mute note
===============================================================================
            
Submit corrections


        Empty lessons Hard to play? Try these video lessons and learn fast Empty lessons
        
↑ Back to top | Tablatures and chords for acoustic guitar and electric guitar, ukulele, drums are parodies/interpretations of the original songs. You may use it for private study, scholarship, research or language learning purposes only