» » »

Enter Shikari - Adieu Tabs

Artists:  A B C D E F G H I J K L M N O P Q R S T U V W X Y Z # 

Adieu Tabs

(ver. 3) Click to play this song!
Enter Shikari
 Rating:
4/5 (11 votes)

 Adieu lessons Tabs too difficult? Try these video lessons and learn fast
 
                -------------------------------------------------------------------------------
                             ADIEU - Enter Shikari
-------------------------------------------------------------------------------
I couldn't find a properly decent enough tab for this song so i thought id just try tab 
as well..
I'm sure you can figure out the strumming pattern by yourself too.


Tuning: C# A D G B E

Intro:
(Repeat A Few Times)
e|----------------------------------------------------------------------------------|
B|----------------------------------------------------------------------------------|
G|---6-/-8-/-10-10-----6-/-8-/-10-10------10-8--6-/-11---10-8--6--6-----------------|
D|---x---x---x--x------x---x---x--x-------x--x--x---x----x--x--x--x-----------------|
A|---4-/-6-/-8--8------4-/-6-/-8--8-------8--6--4-/-9----8--6--4--4-----------------|
C#|--0---0---0--0------0---0---0--0-------0--0--0---0----0--0--0--0-----------------|

(2:18)
e|----------------------------------------------------------------------------------|
B|----------------------------------------------------------------------------------|
G|----10--8--6-/-8-/-10-/-11-\-10---------10--8--6-/-8-/-10-\-8--6------------------|
D|----x---x--x---x---x----x----x----------x---x--x---x---x----x--x------------------|
A|----8---6--4-/-6-/-8--/-9--\-8----------8---6--4-/-6-/-8--\-6--4------------------|
C#|---0---0--0---0---0----0----0----------0---0--0---0---0----0--0------------------|

(2:43)
(Not too sure about the second part on this one but i think you use the 5th fret instead 
0 on C# after you do this once)
e|------4--4--4-----------------------4--4--4---------6--4--------------------|
B|------6--6--4----4---7-6-4----------6--6--4-----4--------6------------------|
G|------6--6--6--6---6-------6--------6--6--6---6---6--------6----------------|
D|------6--6--6-----------------------6--6--6---------------------------------|
A|---4--4--4--4--------------------4--4--4--4---------------------------------|
C#|--0--0--0--0--------------------0--0--0--0---------------------------------|


| /  slide up
| \  slide down
| h  hammer-on
| p  pull-off
| ~  vibrato
| +  harmonic
| x  Mute note
===============================================================================
            
Submit corrections


        Adieu lessons Hard to play? Try these video lessons and learn fast Adieu lessons
        
↑ Back to top | Tablatures and chords for acoustic guitar and electric guitar, ukulele, drums are parodies/interpretations of the original songs. You may use it for private study, scholarship, research or language learning purposes only