Home » E » Enter Shikari »

Enter Shikari - Acid Nation Bass

Artists:  A B C D E F G H I J K L M N O P Q R S T U V W X Y Z # 

Acid Nation Bass

(ver. 2) Click to play this song!
Enter Shikari
 Rating:
4/5 (4 votes)
                Okk,, this is my second attempt at this song and it is more correct too. Its in drop D 
yes i know e.s play in drop c# it still sounds alrite

Verse x4

|-----------------------------------------|
|-----------------------------------------|
|-----------------------------------------|
|-12-12-12-12-12-12-12-12-7-7-7-7-7-7-7-7-|


-----------------------------------------------|
-------------------------------------10--------|
-7-7-7-7-7-7-7-7-7-10-10-10-10-10-12-----12-10-|
-----------------------------------------------|


Chorus 1 x2

|----------------------------------------------------------------|
|----------------------------------------------------------------|
|-2-2-2-2-2-2-2-2-0-0-0-0-0-0-0-0--------------------------------|
|---------------------------------0-0-0-0---0-0--5-5-5-5-5-5-5-5-|

Chorus 2 x2

|-----------------------------------------------------------------|
|-----------------------------------------------------------------|
|-2-2-2-2-2-2-2-2-0-0-0-0-0-0-0-0-5-5-5-5-5-5-5-5-----------------|
|-------------------------------------------------5-5-5-5-5-5-5-5-|

Breakdown

|--------------------------------------------------|
|--------------------------------------------------|
|--------------------------------------------------|
|-0-2-4-0-5-4-2-4----------12--12/-----------------|

Solo:

|------------------------------------------------------|
|------------------------------------------------------|
|---------------------------------12^------------------|
|-0-0--0-0--000--0-0----7-5-4-5-7----------------------|


Ending


------------------------------------------------|
------------------------------------------------|
------------------------------------------------|
-0-0--0-0--/12\--0-0--0-0--/14\--0-0--0-0--/10\-|
            
Submit corrections

↑ Back to top | Tablatures and chords for acoustic guitar and electric guitar, ukulele, drums are parodies/interpretations of the original songs. You may use it for private study, scholarship, research or language learning purposes only