Home » E » Enrique Iglesias »

Enrique Iglesias - Subeme La Radio Tabs

Artists:  A B C D E F G H I J K L M N O P Q R S T U V W X Y Z # 

Subeme La Radio Tabs

(ver. 1) Click to play this song!
Enrique Iglesias
[Intro]
      Am                     F                      C
e|--------------------------------------------------------0-----------0------|
B|--------1-----------1-----------1-----------1--------------1-----------1---|
G|-----------2-----------2-----------2-----------2-----0-----------0---------|
D|-----2-----------2---------------------------------------------------------|
A|--0-----------0--------------3-----------3--------3-----------3------------|
E|--------------------------1-----------1------------------------------------|

     G
e|---------------------------------------------------------------------------|
B|--------3-----------3------------------------------------------------------|
G|-----------4-----------4---------------------------------------------------|
D|-----0-----------0---------------------------------------------------------|
A|---------------------------------------------------------------------------|
E|--3-----------3------------------------------------------------------------|            
Submit corrections

↑ Back to top | Tablatures and chords for acoustic guitar and electric guitar, ukulele, drums are parodies/interpretations of the original songs. You may use it for private study, scholarship, research or language learning purposes only