» » »

Enrique Iglesias - Hero Tabs

Artists:  A B C D E F G H I J K L M N O P Q R S T U V W X Y Z # 

Hero Tabs

(ver. 2) Click to play this song!
Enrique Iglesias
 Rating:
4.3/5 (29 votes)

 Hero lessons Tabs too difficult? Try these video lessons and learn fast
 
                [Intro]

e|-------2--------------2-------|-------2--------------2-------|
B|----------2--------------2----|----------2--------------2----|
G|----0--------------0----------|----0--------------0----------|
D|------------------------------|------------------------------|
A|-------------2--------------2-|-------------2--------------2-|
E|-3--------------3-------------|-0--------------0-------------|

e|-------2--------------2-------|-------2--------------2-------|
B|----------2--------------2----|----------2--------------2----|
G|----0--------------0----------|----0--------------0----------|
D|----------------0-------------|------------------------------|
A|-3-----------3--------------2-|-------------2--------------2-|
E|------------------------------|-3--------------3-------------|


(Verse 1+2)

e|-------2--------------2-------|-------2--------------2-------|
B|----------2--------------2----|----------2--------------2----|
G|----0--------------0----------|----0--------------0----------|
D|------------------------------|------------------------------|
A|-------------2--------------2-|-------------2--------------2-|
E|-3--------------3-------------|-0--------------0-------------|

e|-------2--------------2-------|-------2--------------2-------|
B|----------2--------------2----|----------2--------------2----|
G|----0--------------0----------|----0--------------0----------|
D|------------------------------|-0-----------0--0-------------|
A|-3-----------3--3-----------3-|----------------------------2-|
E|------------------------------|------------------------------|

e|-------2--------------2-------|-------2--------------2-------|
B|----------2--------------2----|----------2--------------2----|        
G|----0--------------0----------|----0--------------0----------|
D|------------------------------|------------------------------|
A|-------------2--------------2-|-------------2--------------2-|
E|-3--------------3-------------|-0--------------0-------------|

e|-------2--------------2-------|-------2--------------2-------|
B|----------2--------------2----|----------2--------------2----|
G|----0--------------0----------|----0--------------0----------|
D|----------------0-------------|------------------------------|
A|-3-----------3--------------2-|-------------2--------------2-|
E|------------------------------|-3--------------3-------------|

(Chorus)


       
(Verse 3)

e|-------2--------------2-------|-------2--------------2-------|
B|----------2--------------2----|----------2--------------2----|
G|----0--------------0----------|----0--------------0----------|
D|------------------------------|------------------------------|
A|-------------2--------------2-|-------------2--------------2-|
E|-3--------------3-------------|-0--------------0-------------|

e|-------2--------------2-------|-------2--------------2-------|
B|----------2--------------2----|----------2--------------2----|
G|----0--------------0----------|----0--------------0----------|
D|------------------------------|-0-----------0--0-------------|
A|-3-----------3--3-----------3-|----------------------------2-|
E|------------------------------|------------------------------|

e|-------2--------------2-------|-------2--------------2-------|
B|----------2--------------2----|----------2--------------2----|        
G|----0--------------0----------|----0--------------0----------|
D|------------------------------|------------------------------|
A|-------------2--------------2-|-------------2--------------2-|
E|-3--------------3-------------|-0--------------0-------------|

e|-------2--------------2-------|-------2--------------2-------|
B|----------2--------------2----|----------2--------------2----|
G|----0--------------0----------|----0--------------0----------|
D|----------------0-------------|------------------------------|
A|-3-----------3--------------2-|-------------2--------------2-|
E|------------------------------|-3--------------3-------------|

(Chorus)



(Solo)


(Bridge)


e|-------2--------------2-------|-------2--------------2-------|
B|----------2--------------2----|----------2--------------2----|
G|----0--------------0----------|----0--------------0----------|
D|------------------------------|------------------------------|
A|-------------2--------------2-|-------------2--------------2-|
E|-3--------------3-------------|-0--------------0-------------|

e|-------2--------------2-------|-------2--------------2-------|
B|----------2--------------2----|----------2--------------2----|
G|----0--------------0----------|----0--------------0----------|
D|----------------0-------------|------------------------------|
A|-3-----------3--------------2-|-------------2--------------2-|
E|------------------------------|-3--------------3-------------|


(Chorus 2x)


(Ending)
            
Submit corrections


        Hero lessons Hard to play? Try these video lessons and learn fast Hero lessons
        
↑ Back to top | Tablatures and chords for acoustic guitar and electric guitar, ukulele, drums are parodies/interpretations of the original songs. You may use it for private study, scholarship, research or language learning purposes only