» » »

Enrique Iglesias - Escape Tabs

Artists:  A B C D E F G H I J K L M N O P Q R S T U V W X Y Z # 

Escape Tabs

(ver. 3) Click to play this song!
Enrique Iglesias
 Rating:
4/5 (4 votes)

 Escape lessons Tabs too difficult? Try these video lessons and learn fast
 
                ---------|---------|---------|---------|---------|---------|---------|--------
---------|---------|---------|---------|-------0-|-------0-|---------|--------
-------4-|-------4-|-------4-|---------|---------|---------|-------3-|--------
-----4---|---4-----|---2-----|---2-----|---------|---------|---------|---4----
-2-------|---------|---------|-------2-|-----6---|---6-----|---------|--------
---------|---------|---------|---------|-4-------|---------|---2-----|--------
                                                                              

-|----------------------------------------------------------------------------
-|----------------------------------------------------------------------------
-|----------------------------------------------------------------------------
-|----------------------------------------------------------------------------
-|----------------------------------------------------------------------------
-|----------------------------------------------------------------------------
            
Submit corrections


        Escape lessons Hard to play? Try these video lessons and learn fast Escape lessons
        
↑ Back to top | Tablatures and chords for acoustic guitar and electric guitar, ukulele, drums are parodies/interpretations of the original songs. You may use it for private study, scholarship, research or language learning purposes only