Home » E » Enrique Iglesias »

Enrique Iglesias - Be With You Chords

Artists:  A B C D E F G H I J K L M N O P Q R S T U V W X Y Z # 

Be With You Chords

(ver. 1) Click to play this song!
Enrique Iglesias
                               ENRIQUE IGLESIAS: BE WITH YOU


INTRO:

e|---7--5--4h5--------------------------|
B|-------------7---7-5-7--7/9--9--------|
G|-4------------------------------------|
D|--------------------------------------|
A|--------------------------------------|
E|--------------------------------------|

e|---5/7--5--7/9---------------------------|
B|---------------7-----5\4-2-----9/10-9----|
G|-4---------------------------------------|
D|-----------------------------------------|
A|-----------------------------------------|
E|-----------------------------------------|

INTERLUDE:
e|-----------|
B|-----------|
G|-----------|
D|---------6-|   x2
A|-4--6--7---|
E|-----------|

E              B
Monday night I feel so low
C#m                    Abm
Count the hours they go so slow
A
I know the sound of your voice
 C#m
Can save my soul


E            B
City lights, streets of gold
C#m                       Abm
Look out my window to the world below
A
Moves so fast and it feels so cold
C#m
And I'm all alone


A
Don't let me die
A
I'm losing my mind
B*
Baby just give me a sing

*only once


CHORUS:
   A               B
And now that you're gone
            C#m         Abm
I just wanna be with you
   A          B
And I can't go on
        C#m       Abm
I wanna be with you
A
Wanna be with you


INTERLUDE:
e|-----------------------------------------------|
B|-----------7/9--7-5-4------------------555/7\5-|
G|----------------------6------------------------|
D|---------6---------------------6---6\4/6-------|
A|-4--6--7---------------4--6--7-----------------|
E|-----------------------------------------------|

E                    B
I can't sleep and I'm up all night
C#m                  Abm
Through these tears I try to smile
A
I know the touch of your hand
C#m
Can save my life

A
Don't let me down
A
Come to me now
B*
I got to be with you some how

*only once


CHORUS:
   A               B
And now that you're gone
            C#m         Abm
I just wanna be with you
   A          B
And I can't go on
        C#m       Abm
I wanna be with you
A
Wanna be with you

SOLO:
e|--------------------------------------------------|
B|---------------------------------7/9-9-9-7-5/7----|
G|-------------8-9--6/8\6---------------------------|
D|---------6---------------------6------------------|
A|-4--6--7---------------4--6--7--------------------|
E|--------------------------------------------------|

e|----5/7-7-7-5-4-5--12-161616-14-12-11/12-----------|
B|-----------------------------------------12--------|
G|---------------------------------------------------|
D|---------------------------------------------------|
A|---------------------------------------------------|
E|---------------------------------------------------|

A                  B
And now that you're gone
C#m         Abm
Who am I without you now
A         B
I can't go on
            C#m         Abm
I just wanna be with you


CHORUS x2:
   A               B
And now that you're gone
            C#m         Abm
I just wanna be with you
   A          B
And I can't go on
        C#m       Abm
I wanna be with you
A
Wanna be with you...
            
Submit corrections

↑ Back to top | Tablatures and chords for acoustic guitar and electric guitar, ukulele, drums are parodies/interpretations of the original songs. You may use it for private study, scholarship, research or language learning purposes only