Home » E » Ennio Morricone »

Ennio Morricone - Man With The Harmonica Bass

Artists:  A B C D E F G H I J K L M N O P Q R S T U V W X Y Z # 

Man With The Harmonica Bass

(ver. 1) Click to play this song!
Ennio Morricone
WITH GUITAR + BASS
  1234 1234 1234 1234 1234 1234 1234 1234 1234 1234 1234 1234
G|----/----/----/----/----/----/----/----/----/----/----/----/
D|7---/----/5---/----/----/----/----/----/----/----/----/----/
A|----/----/----/----/8---/----/7---/5---/----/----/----/----/
E|----/----/----/----/----/----/----/----/8---/----/7---/----/
B|----/----/----/----/----/----/----/----/----/----/----/----/

  1234 1234 1234 1234
G|----/----/----/----/
D|----/----/----/----/
A|----/----/----/----/
E|----/----/----/----/
B|6---/----/5---/----/

WITH DRUMS
  1 n 2 j 3 j 4 r  1 n 2 j 3 j 4 r  1 n 2 j 3 j 4 r 
G|----------------/----------------/----------------/
D|----------------/----------------/----------------/
A|----------------/----------------/----------------/
E|5---5-5---5-5---/----------------/----------------/
B|----------------/8---8-8---888---/6---6-6---6-6---/

  1 n 2 j 3 j 4 r  1 n 2 j 3 j 4 r  1 n 2 j 3 j 4 r 
G|----------------/----------------/----------------/
D|----------------/----------------/----------------/
A|------------5---/----------------/----------------/
E|----------------/8---8-8---8-8---/7---7-6---666---/
B|5---5-5---------/----------------/----------------/

  1 n 2 j 3 j 4 r  1 n 2 j 3 j 4 r  1 n 2 j 3 j 4 r 
G|----------------/----------------/----------------/
D|----------------/----------------/----------------/
A|----------------/----------------/----------------/
E|5---5-5---5-5---/----------------/----------------/
B|----------------/8---8-8---888---/6---6-6---6-6---/

  1 n 2 j 3 j 4 r  1 n 2 j 3 j 4 r  1 n 2 j 3 j 4 r 
G|----------------/----------------/----------------/
D|----------------/----------------/----------------/
A|5-----5-5---5---/7-----7-7---7---/----------------/
E|----------------/----------------/5---------------/
B|----------------/----------------/----------------/

OUTRO: no bas
            
Submit corrections

↑ Back to top | Tablatures and chords for acoustic guitar and electric guitar, ukulele, drums are parodies/interpretations of the original songs. You may use it for private study, scholarship, research or language learning purposes only