Home » E » Ennio Morricone »

Ennio Morricone - A Fistful Of Dollars Bass

Artists:  A B C D E F G H I J K L M N O P Q R S T U V W X Y Z # 

A Fistful Of Dollars Bass

(ver. 1) Click to play this song!
Ennio Morricone
This is a "port" of the guitar tab for this song.

Transposed by: Dr. Robert

Intro (finger picked)

G|------7------7-|
D|-5h7----7------|
A|----------5----|
E|---------------|

Whistled part

G|--------9-10--12--10-9------------------|
D|----12-----------------12--10------10-12|
A|-12----------------------------12-------|
E|----------------------------------------|

G|--------9-10--12--10-9---------------------|
D|----12------------------12--10------10-----|
A|-12-----------------------------12------12-|
E|-------------------------------------------|

G|--------9-10--12--10-9------9--10--12--14-|
D|----12------------------12----------------|
A|-12---------------------------------------|
E|------------------------------------------|

G|-17--14--14------18--14--14---------12-|
D|------------15--------------15--12-----|
A|---------------------------------------|
E|---------------------------------------|

G|-----9--10-------------|
D|-12---------12--10--12-|
A|-----------------------|
E|-----------------------|

Bass solo #1

        triplet        triplet                               triplet
       ________       ________                              ________
G|-------------------------------------9-10-9--------------------------------|
D|-----12-10-12-------12-10-12------12---------12-10----10--12-10-12--10-----|
A|-12-------------12------------12-------------------12-------------------12-|
E|---------------------------------------------------------------------------|

        triplet        triplet                                triplet
       ________       ________                                _______
G|----------------------------------10-12--14--12-10-9-----9--10-9-10--10--9-----------|
D|-----12-10-12-------12-10-12--10----------------------10--------------------12-10-12-|
A|-12-------------12-------------------------------------------------------------------|
E|-------------------------------------------------------------------------------------|

G|-12----10--------------|
D|------------12--10--12-|
A|-----------------------|
E|-----------------------|

Bass solo #2

G|----------9-10-12-10-9---------------------|
D|----12------------------12--10------10-----|
A|-12-----------------------------12------12-|
E|-------------------------------------------|

G|--------12--14-15-14---12-10-12--10-9-----|
D|----15---------------------------------12-|
A|-15---------------------------------------|
E|------------------------------------------|

G|----14--17---14--14------------14--19--14-------|
D|-15------------------15----15-------------15----|
A|---------------------------------------------17-|
E|------------------------------------------------|

G|-14---------14-----------------|
D|----15---------15--17---14-----|
A|-------17-------------------17-|
E|-------------------------------|

G|---------9-10-9----------------19~~~|
D|-----12----------12--10--12---------|
A|-12---------------------------------|
E|------------------------------------|
            
Submit corrections

↑ Back to top | Tablatures and chords for acoustic guitar and electric guitar, ukulele, drums are parodies/interpretations of the original songs. You may use it for private study, scholarship, research or language learning purposes only