» » »

Emmure - 10 Signs You Should Leave Tabs

Artists:  A B C D E F G H I J K L M N O P Q R S T U V W X Y Z # 

10 Signs You Should Leave Tabs

(ver. 1) Click to play this song!
Emmure
 Rating:
3/5 (8 votes)

 10 Signs You Should Leave lessons Tabs too difficult? Try these video lessons and learn fast
 
                "10 Signs You Should Leave" by Emmure
The other tab is pretty wrong
This is the LEGIT version

EMMURE IS TUNED IN A SHARP

The beginning im preetty damn sure is 100% right. You just have to get the bends down. 
to bend the 3's and it should sound hella good

(0:00-0:23)
C-|---------------------------------|
G-|---------------------------------|
D#|---------------------------------|
A#|---------------------------------|
F-|--0-6-5------6-5-----------------|
A#|-00--3-3~00-3-3~-1~--------------|
     .        ..


C-|---------------------------------|
G-|---------------------------------|
D#|---------------------------------|
A#|-----------------111-0-----------|x5
F-|--0-6-5------6-5-000-0-----------|
A#|-00--3-3~00-3-3~-111-0-----------|
     .              ...

(0:24-0:34) You can figure out which note to mute and the rythem
C-|---------------------------------|
G-|---------------------------------|
D#|---------------------------------|
A#|-3-1-1-1-1-1-1-1-3-1-1-1-1-1-1-1-|
F-|-3-1-0-0-0-0-0-0-3-1-0-0-0-0-0-0-|
A#|-3-1-1-1-1-1-1-1-3-1-1-1-1-1-1-1-|
        . . . . . .     . . . . . .


(0:35-0:39) Slow gnarly ass breakdown
C-|---------------------------------|
G-|---------------------------------|
D#|---------------------------------|
A#|-1-1-1-1-1-1-1-111-1-1-1-1-1-1-1-|
F-|-0-0-0-0-0-0-0-000-1-0-0-0-0-0-0-|
A#|-1-1-1-1-1-1-1-111-1-1-1-1-1-1-1-|
    . . . . . . . ... . . . . . . .

(0:40-0:43)
C-|--0-0-0-0-0-0-0-0----|
G-|--4-4-4-4-4-4-4-4----|
D#|---------------------|
A#|-1-1-1-1-1-1-1-1-----|
F-|-0-0-0-0-0-0-0-0-----|
A#|-1-1-1-1-1-1-1-1-----|
    . . . . . . . .

(0:44-0:46)
MORE DIRTIES!! You can figure out the rythem
C-|-------------------|
G-|-------------------|
D#|-------------------|
A#|-1-111-111-11-11---|x??
F-|-0-000-000-00-00---|
A#|-1-111-111-11-11---|
    . ... ... .. ..


(0:47-0:54)
C-|--000000--000000---000000---000000-------------|
G-|--444444--444444~--444444---444444-------------|
D#|-----------------------------------------------|
A#|-1------11--------1-------11-------slide-down--|
F-|-0------00--------0-------00-------slide-down--|
A#|-1------11--------1-------11-------slide-down--|
    .      ..        .       ..


(0:55-1:01)
"AND ITS SAADD TO SSAAYY"
C-|-------------------------------------------------|
G-|-------------------------------------------------|
D#|-------------------------------------------------|
A#|-0----11111-----1-11111-----11111---slide-down---|
F-|-0----00000-----0-00000-----00000---slide-down---|
A#|-0----11111-----1-11111-----11111---slide-down---|
    .    ....      . ....      ....

(1:02-1:08)
C-|----------------0-0----------------0-0-----------|
G-|----------------4-4----------------4-4-----------|
D#|-------------------------------------------------|
A#|-0---0000------0----0---00000-----0--------------|
F-|-0---0000------0----0---00000-----0--------------|
A#|-0---0000--2~--0----0---00000--2~-0--------------|
    .   ....      .    .   .....     .


(1:09-1:12)
C-|----------------------------------|
G-|--444444444444444444444444--------|
D#|--777777777777777777777777--------|
A#|----------------------------------|
F-|----------------------------------|
A#|----------------------------------|


(1:13-1:19)
C-|----------------0-0----------------0-0-----------|
G-|----------------4-4----------------4-4-----------|
D#|-------------------------------------------------|
A#|-0---0000------0----0---00000-----0--------------|
F-|-0---0000------0----0---00000-----0--------------|
A#|-0---0000--2~--0----0---00000--2~-0--------------|
    .   ....      .    .   .....     .


(1:20-1:25)
C-|----------------------------------------------------------------|
G-|--444444444444444444444444-1111111111111111111111111111111111---|
D#|--777777777777777777777777-1414141414141414141414141414141414---|
A#|----------------------------------------------------------------|
F-|----------------------------------------------------------------|
A#|----------------------------------------------------------------|

"DONT YOU KNOW THAT"
You have to figure out the rythem yourself
(1:26-1:42)
C-|---------------------------------------|
G-|---------------------------------------|
D#|---------------------------------------|
A#|-3-4-2-3--1-1-11-1-1-11-1-1-1-11-1-----|
F-|-3-3-2-2--0-0-00-0-0-00-0-0-0-00-0-----|
A#|-3-4-2-3--1-1-11-1-1-11-1-1-1-11-1-----|
    . . . .    .    . . .. . . .    .

(1:43-1:49)
C-|-----------------------------------------------|
G-|-----------------------------------------------|
D#|----------strum--------------------------------|
A#|----------hella--------------------------------|
F-|----------times--------------------------------|
A#|--0-0-0-0---------000--0-0-0-0---------000-----|


(1:50-2:01) Pick fast
C-|----------------------------------------------------------|
G-|----------------------------------------------------------|
D#|----------------------------------------------------------|
A#|-------------8--------------------------------------------|
F-|---------5-6----------6-5-3-------------------------------|
A#|--0-0-0-0------0-0-0-0-----0-0-0-0--0-0-0-0--630-630-3~---|
                                                ... ...

(2:02-2:15)
"OVER?? THIS ISNT OVER TIL I SAY ITS OVER"
Figure out the rythem...again sorry :/
C-|-------------------|
G-|-------------------|
D#|-------------------|
A#|-1-1-1-1-1-1-1-1-1-|
F-|-0-0-0-0-0-0-0-0-0-|
A#|-1-1-1-1-1-1-1-1-1-|
    . . . . . . . . .

(2:16-2:26)
C-|---------------------------------|
G-|---------------------------------|
D#|---------------------------------|
A#|---------------------------------|
F-|--0-6-5------6-5-----------------|
A#|-00--3-3~00-3-3~-1~--------------|
     .        ..


C-|---------------------------------|
G-|---------------------------------|
D#|---------------------------------|
A#|-----------------111-0-----------|x5
F-|--0-6-5------6-5-000-0-----------|
A#|-00--3-3~00-3-3~-111-0-----------|
     .              ...


(2:27-2:31)
This is the part where everyone claps their hands!
"BACK TO SQUARE ONE"
C-|---------------------------------|
G-|---------------------------------|
D#|---------------------------------|
A#|-----------------slide-down------|
F-|-----------------slide-down------|
A#|-00~------00~----slide-down------|
    .        .

(2:32-2:43)
C-|---------------------------------|
G-|---------------------------------|
D#|---------------------------------|
A#|---------------------------------|
F-|--0-6-5------6-5-----------------|
A#|-00--3-3~00-3-3~-1~--------------|
     .        ..


C-|---------------------------------|
G-|---------------------------------|
D#|---------------------------------|
A#|-----------------111-0-----------|x5
F-|--0-6-5------6-5-000-0-----------|
A#|-00--3-3~00-3-3~-111-0-----------|
     .              ...


(2:44-3:00)
Hit your bunny hops to this part
C-|------------------------------|
G-|------------------------------|
D#|------------------------------|
A#|-0~--0-000-00-0-00-333-111----|x2
F-|-0~--0-000-00-0-00-333-111----|
A#|-0~--0-000-00-0-00-333-111----|
On the second time through make the 1 a drity cord 101

(3:01-3:07)
C-|-------------------------------------------------|
G-|-------------------------------------------------|
D#|-------------------------------------------------|
A#|-0----00000-----0-00000-----00000---slide-down---|
F-|-0----00000-----0-00000-----00000---slide-down---|
A#|-0----00000-----0-00000-----00000---slide-down---|
    .    ....      . ....      ....


(3:08-3:16)
C-|----------------0-0----------------0-0-----------|
G-|----------------4-4----------------4-4-----------|
D#|-------------------------------------------------|
A#|-0---0000------0----0---00000-----0--------------|
F-|-0---0000------0----0---00000-----0--------------|
A#|-0---0000--2~--0----0---00000--2~-0--------------|
    .   ....      .    .   .....     .


             this song is sooooo raw
            
Submit corrections


        10 Signs You Should Leave lessons Hard to play? Try these video lessons and learn fast 10 Signs You Should Leave lessons
        
↑ Back to top | Tablatures and chords for acoustic guitar and electric guitar, ukulele, drums are parodies/interpretations of the original songs. You may use it for private study, scholarship, research or language learning purposes only