» » »

Emilys Army - Broadcast This Bass

Artists:  A B C D E F G H I J K L M N O P Q R S T U V W X Y Z # 

Broadcast This Bass

(ver. 2) Click to play this song!
Emilys Army
 Rating:
4.2/5 (5 votes)

 Broadcast This lessons Tabs too difficult? Try these video lessons and learn fast
 
                -------------------------------------------------------------------------------
                             Broadcast This (Bass Solo) - Emily's Army
-------------------------------------------------------------------------------


Tuning: Standard
Not sure if it is 100% accurate. Let me know if you have any problems.

G|-----------------------------------------------------------------------------|
D|-----------2-3-33-3-2-0------------------------------------------------------|
A|-3-33-3333--------------2-3-33-3-2-0-----------------------------------------|
E|--------------------------------------3--333-1-1-333-------------------------|

G|-----------------------------------------------------------------------------|
D|-----------2-3-33-3-2-0---------------------5---55--5---5--------------------|
A|-3-33-3333--------------2-3-33-3-2-0-----------------------------------------|
E|--------------------------------------3-33-3--33---33-33-3-------------------|




| /  slide up
| \  slide down
| h  hammer-on
| p  pull-off
| ~  vibrato
| +  harmonic
| x  Mute note
===============================================================================
            
Submit corrections


        Broadcast This lessons Hard to play? Try these video lessons and learn fast Broadcast This lessons
        
↑ Back to top | Tablatures and chords for acoustic guitar and electric guitar, ukulele, drums are parodies/interpretations of the original songs. You may use it for private study, scholarship, research or language learning purposes only