» » »

Emery - What Makes A Man A Man Chords

Artists:  A B C D E F G H I J K L M N O P Q R S T U V W X Y Z # 

What Makes A Man A Man Chords

(ver. 1) Click to play this song!
Emery
 Rating:
4/5 (4 votes)

 What Makes A Man A Man lessons Tabs too difficult? Try these video lessons and learn fast
 
                -------------------------------------------------------------------------------
          What Makes a Man a Man Intro - Emery
-------------------------------------------------------------------------------

Tuning:Eb Ab Db Gb Bb Eb (Standard Flat)


 B      A
Take a look
 Em    
And see for yourself,


 G            A
What makes a man a man.
 B
And I
         A
I will stare
    Em
Back to the life that I loved
  G          A
Maybe you won't forget...

Who I am.




For those non chord familair people...

      B       A       Em    G   A
eb|-------------------------2-2-----------------------------------------------|
Bb|-------------------------0-0-----------------------------------------------|
Gb|-4-4-4-4-2-2-2-2---------0-0-2-2-------------------------------------------|
Db|-4-4-4-4-2-2-2-2-2-2-2-2-0-0-2-2-------------------X2----------------------|
Ab|-2-2-2-2-0-0-0-0-2-2-2-2-2-2-0-0-------------------------------------------|
Eb|-----------------0-0-0-0-3-3-----------------------------------------------|
Lyrics: (what I think they are anyways.)

Take a look, and see for yourself. what makes a man a man
And I, I will stare, back to the life I loved, maybe you won't forget,
Who I am.
            
Submit corrections


        What Makes A Man A Man lessons Hard to play? Try these video lessons and learn fast What Makes A Man A Man lessons
        
↑ Back to top | Tablatures and chords for acoustic guitar and electric guitar, ukulele, drums are parodies/interpretations of the original songs. You may use it for private study, scholarship, research or language learning purposes only