» » »

Emery - The Less You Say Tabs

Artists:  A B C D E F G H I J K L M N O P Q R S T U V W X Y Z # 

The Less You Say Tabs

(ver. 1) Click to play this song!
Emery
 Rating:
1.8/5 (30 votes)

 The Less You Say  lessons Tabs too difficult? Try these video lessons and learn fast
 
                INTRO
   GUITAR 1
e|---------------------------------------------------------------------------|
B|---6-9-6-----6-9-6-------6-9-6-------6-------------------------------------|
G|--8-----8---8-----8-6---8-----8-6--6---------------------------------------|
D|---------------------------------------------------------------------------|
A|---------------------------------------------------------------------------|
E|---------------------------------------------------------------------------|
   GUITAR 2
e|---------------------------------------------------------------------------|
B|----6---6---6---7-6-----6---7-6--4---4-4-----------------------------------|
G|----6---6---6---6-6-----6---6-6--6---6-6-----------------------------------|
D|---6---6---6---6-------6---6----6------------------------------------------|
A|--4---4---4---4-------4---4----4-------------------------------------------| \
E|---------------------------------------------------------------------------|  \
                                                                                 }
   GUITAR 1                                                                     /
e|---------------------------------------------------------------------------| /
B|---6-9-6-----6-9-6-------6-9-6-------9-6-----------------------------------|
G|--8-----8---8-----8-6---8-----8-6---6---6----------------------------------| 
D|---------------------------------------------------------------------------|
A|---------------------------------------------------------------------------|
E|---------------------------------------------------------------------------|
   GUITAR 2
e|---------------------------------------------------------------------------|
B|----6---6---6---7-6-----6---6--4-------------------------------------------|
G|----6---6---6---6-6-----6---6--6-------------------------------------------|
D|---6---6---6---6-------6---6---6-------------------------------------------|
A|--4---4---4---4-------4---4----4-------------------------------------------| 
E|---------------------------------------------------------------------------|

"You ever catch yourself Just thinking of a way to get out..."  
   GUITAR 1  
e|---------------------------------------------------------------------------|
B|---6-9-6-----6-9-6-------6-9-6-------9-6-----------------------------------|
G|--8-----8---8-----8-6---8-----8-6---6---6----------------------------------|  
D|---------------------------------------------------------------------------|
A|---------------------------------------------------------------------------|
E|---------------------------------------------------------------------------|
   GUITAR 2
e|---------------------------------------------------------------------------|
B|----6---4---4--6-7-6----6---4----------------------------------------------|
G|----6---6---6-----------6---6--6-------------------------------------------|
D|---6---6---6-----------6---6---6-------------------------------------------|
A|--4---4---4---4-------4---4----4-------------------------------------------|
E|---------------------------------------------------------------------------| 

"The words flew in and leave a taste..."                                  
   GUITAR 1                                                                    
e|---------------------------------------------------------------------------|
B|---6-9-6------6-9-6-----6-9-6-------9-6------------------------------------|
G|--8-----8-6--8-----8---8-----8-6---6---6-----------------------------------|
D|---------------------------------------------------------------------------|
A|---------------------------------------------------------------------------|
E|---------------------------------------------------------------------------|
   GUITAR 2
e|-----------------------------4---------------------------------------------|
B|----4---6---4-6-7-6-4-6---4-6-6-4-6-4--------------------------------------|
G|----6---6----------------------------5-6-----------------------------------|
D|---6---6-------------------------------------------------------------------|
A|--4---4--------------------------------------------------------------------| 
E|---------------------------------------------------------------------------|

"We fell asleep just like before..."
e|---------------------------------------------------------------------------|
B|----6-7-6-----6-7-6-----6-7-6----------------------------------------------|
G|---6-----6---6-----6---6-----6---------------------------------------------|
D|---------------------------------------------------------------------------|
A|--4---------4---------6---------6------------------------------------------|
E|---------------------------------------------------------------------------|

"Make this all something that's behind us..."
e|---------------------------------------------------------------------------|
B|---------------------------------------------------------------------------|
G|---5-6-5-------------------------------------------------------------------|  X4
D|--6-----6-8-4--------------------------------------------------------------|
A|-4------------8-4----------------------------------------------------------|
E|------------------8-4------------------------------------------------------|

"Color your words in soft subtle sequence..."
   GUITAR 1
e|--------------------------------------------------------------------------------------|
B|--------------------------------------------------------------------------------------|
G|--6-6-6-6-6-5-5----------3-3--3-3---6-6-6-6-6s8s5---8-8-10-10-8-8-6-6-6-6-5-5-5-5-----|
D|------------------6-6-6-6-------------------------------------------------------------|
A|--------------------------------------------------------------------------------------|
E|--------------------------------------------------------------------------------------|
   GUITAR 2
e|--------------------------------------------------------------------------------------|
B|--------------------------------------------------------------------------------------|
G|--------------------------------------------------------------------------------------|
D|---------8--------------------------------8------6(x14)-------------------------------|
A|--8-8-8-8-6-6---6-6-6-6-4-4--4-4---8-8-8-8-6-6----------------------------------------|
E|--------------------------------------------------------------------------------------|

"The feel's that they will find us..."
   GUITAR 1
e|--------------------------------------------------------------------------------------|
B|--------------------------------------------------------------------------------------|
G|--6-6-6-6-6-5-5----------3-3--3-3---6-6-6-6-6h8-5h6-3h5-------5-5-6-6-8-8-6-6-5-5-3-3-|
D|------------------6-6-6-6------------------------------3-3-6-6------------------------|
A|--------------------------------------------------------------------------------------|
E|--------------------------------------------------------------------------------------|
   GUITAR 2
e|--------------------------------------------------------------------------------------|
B|--------------------------------------------------------------------------------------|
G|--------------------------------------------8-6---------------------------------------|
D|---------8------6-6-6-6--6-6--6-6----------8-------------------6-6-8-8----------------|
A|--8-8-8-8-6-6-----------------------8-8-8-8-------6-6-8-8-10-10-------10-10-8-8-------|
E|--------------------------------------------------------------------------------------|

"We fell asleep just like before..."
e|---------------------------------------------------------------------------|
B|----6-7-6-----6-7-6-----6-7-6----------------------------------------------|
G|---6-----6---6-----6---6-----6---------------------------------------------|
D|---------------------------------------------------------------------------|
A|--4---------4---------6---------6------------------------------------------|
E|---------------------------------------------------------------------------|

"You better run, you best not stay..."
   Guitar 1
e|---------------------------------------------------------------------------|
B|---------------------------------------------------------------------------|
G|---5-6-5-------------------------------------------------------------------|  X8
D|--6-----6-8-4--------------------------------------------------------------|
A|-4------------8-4----------------------------------------------------------|
E|------------------8-4------------------------------------------------------|
   Guitar 2 CHORDS 
e|---------------------------------------------------------------------------|
B|---------------------------------------------------------------------------|
G|--6---------11----6--5-----------------------------------------------------|  X2
D|--6----8----11----6--6-----------------------------------------------------|
A|--4----8----9-----4--3-----------------------------------------------------|
E|-------6-------------------------------------------------------------------|

"Just give me a chance to change your mind..."
   GUITAR 1
e|--------------------------------------------------------------------------------------|
B|--------------------------------------------------------------------------------------|
G|--6-6-6-6-6-5-5----------3-3--3-3---6-6-6-6-6s8s5---6-6-8-8--10-10--8-8---------------|
D|------------------6-6-6-6-------------------------------------------------------------|
A|--------------------------------------------------------------------------------------|
E|--------------------------------------------------------------------------------------|
   GUITAR 2
e|--------------------------------------------------------------------------------------|
B|--------------------------------------------------------------------------------------|
G|--------------------------------------------------------------------------------------|
D|---------8--------------------------------8------6-6-6-6--6-6--6-6--------------------|
A|--8-8-8-8-6-6---6-6-6-6-4-4--4-4---8-8-8-8-6-6----------------------------------------|
E|--------------------------------------------------------------------------------------|

"The place that you now hope to find your peace..."
   GUITAR 1
e|--------------------------------------------------------------------------------------|
B|--------------------------------------------------------------------------------------|
G|--6-6-6-6-6-5-5----------3-3--3-3---6(x5)--5(x5)----------5-5-6-6-8-8-6-6-5-5-3-3-----|
D|------------------6-6-6-6--------------------------3-3-6-6----------------------------|
A|--------------------------------------------------------------------------------------|
E|--------------------------------------------------------------------------------------|
   GUITAR 2
e|--------------------------------------------------------------------------------------|
B|--------------------------------------------------------------------------------------|
G|--------------------------------------------------------------------------------------|
D|---------8----------------------------------------------------------6-6-8-8-----------|
A|--8-8-8-8-6-6---4-4-4-4--3-3--3-3---8-8-8-8--6-6-6-6---6-6-8-8-10-10-------10-10-8-8--|
E|--------------------------------------------------------------------------------------|

"You could make this all go away..." 
   Guitar 1 (very softly)
e|---------------------------------------------------------------------------|
B|----6-7-6-----6-7-6--------------------------------------------------------|
G|---6-----6---6-----6-------------------------------------------------------|
D|---------------------------------------------------------------------------|
A|--4---------4---------6----------------------------------------------------|
E|---------------------------------------------------------------------------|
   Guitar 2  ( x = muted )
e|---------------------------------------------------------------------------|
B|--6---6---7----------------------------------------------------------------|
G|--6---6---6----8x--8x------------------------------------------------------|
D|--3---3---4----8x--8x------------------------------------------------------|
A|---------------6x--6x------------------------------------------------------|
E|---------------------------------------------------------------------------|

"Years swept by us like seas..." 
e|------------------------4-4---4-4------------------------------------------|
B|-------------------------6-6---6-6-----------------------------------------|
G|--6------5-------------6-----6-----11------10------6------5------8---------|
D|--6-(x6)-6-(x3)-6------6-----6-----11-(x3)-10-(x3)-6-(x6)-6-(x3)-8-(x3)----|
A|--4------3------6-(x3)-4-----4-----9-------8-------4------3------6---------|
E|----------------4----------------------------------------------------------|

"You better run, you best not stay..."
   Guitar 1
e|---------------------------------------------------------------------------|
B|---------------------------------------------------------------------------|
G|---5-6-5-------------------------------------------------------------------|  X8
D|--6-----6-8-4--------------------------------------------------------------|
A|-4------------8-4----------------------------------------------------------|
E|------------------8-4------------------------------------------------------|
   Guitar 2 CHORDS 
e|---------------------------------------------------------------------------|
B|---------------------------------------------------------------------------|
G|--6---------11----6--5-----------------------------------------------------|  X2
D|--6----8----11----6--6-----------------------------------------------------|
A|--4----8----9-----4--3-----------------------------------------------------|
E|-------6-------------------------------------------------------------------|

"The less you say the more I cant shake..."
   Guitar 1
e|---------------------------------------------------------------------------|
B|---------------------------------------------------------------------------|
G|--------5-6---6-5----------------------------------------------------------| X6
D|--6p3------------6p3-------------------------------------------------------|
A|-----6p4----4--------------------------------------------------------------|
E|---------------------------------------------------------------------------|
   Guitar 2 CHORDS 
e|---------------------------------------------------------------------------|
B|---------------------------------------------------------------------------|
G|--8------6------4----------------------------------------------------------| X2
D|--8-(x8)-6-(x8)-4-(x8)-----------------------------------------------------|
A|--6------4------2----------------------------------------------------------|
E|---------------------------------------------------------------------------|

"The reason you need to leave..."
   Guitar 1
e|---------------------------------------------------------------------------|
B|---------------------------------------------------------------------------|
G|----6-5----------------------6---5-6-3--3---------5-6-8-10--5-5b6----------|
D|---6---6------------3-4-6-6------------6-3-3--1----------------------------|
A|--4-----6-8--6---4-6-------------------------------------------------------|
E|---------------------------------------------------------------------------|
   Guitar 2
e|---6--4--4--------6--4--4------6--4------4---6--4--4-----------------------|
B|---6--x---6-------6--x---6-----6--x---6-6----6--x--6-----------------------|
G|---6--5----6-6----6--5----6----6--5--6-6-----6--5--6-----------------------|
D|--6--6--6----6---6--6--6------6--6--6-------6--6---6-----------------------|
A|--4--3--4----4---4--3--4------4--3--4-------4--3---4-----------------------|
E|--------4--------------4------------4--------------4-----------------------|            
Submit corrections


        The Less You Say  lessons Hard to play? Try these video lessons and learn fast The Less You Say  lessons
        
↑ Back to top | Tablatures and chords for acoustic guitar and electric guitar, ukulele, drums are parodies/interpretations of the original songs. You may use it for private study, scholarship, research or language learning purposes only