» » »

Emery - Walls Bass

Artists:  A B C D E F G H I J K L M N O P Q R S T U V W X Y Z # 

Walls Bass

(ver. 3) Click to play this song!
Emery
 Rating:
4/5 (4 votes)

 Walls lessons Tabs too difficult? Try these video lessons and learn fast
 
                -------------------------------------------------------------------------------
			    WALLS - Emery
-------------------------------------------------------------------------------


Tuning:Drop C#


Intro-0:03
F#|---------------------------------------------------------------------------|
C#|---------------------------------------------------------------------------|
G#|---------------------------------------------------------------------------|
C#|-00000--000000000000--000000077777--777777733333--3333333------------------|

F#|---------------------------------------------------------------------------|
C#|---------------------------------------------------------------------------|
G#|-------------------------------------------------5/8~----------------------|
C#|-00000--000000000000--000000077777--77777773333----------------------------|

Verse 1-0:26
F#|---------------------------------------------------------------------------|
C#|---------------------------------------------------------------------------|
G#|---------------------------------------------------------------------------|
C#|-00-00-00-00-000000-00-00-00-000077-77-77-77-77~7\33-33-33-3-3-3-3---------|

F#|---------------------------------------------------------------------------|
C#|---------------------------------------------------------------------------|
G#|---------------------------------------------------------------------------|
C#|-00-00-00-00-000000-00-00-00-000077-77-77-77-77~7\33-33-33-33-3333---------|

Synth Riff-0:49
F#|---------------------------------------------------------------------------|
C#|---------------------------------------------------------------------------|
G#|-33333-33333-00000-00000---------------------------------------------------|
C#|-------------------------00-00-00-00-000000-00-00-00-0000------------------|

F#|---------------------------------------------------------------------------|
C#|---------------------------------------------------------------------------|
G#|-33333-33333-00000-00000---------------------------------------------------|
C#|-------------------------00-00-00-00-000055-55-55-55-5555-3~33333333333333-|

Chorus Thing-1:11
F#|---------------------------|
C#|---------------------------|
G#|---------------------------|
C#|-77----55----33----55--55~-|

F#|--------------------------------------------------------------------------------|
C#|--------------------------------------------------------------------------------|
G#|--------------------------------------------------------------------------------|
C#|-7777777777777777-5555555555555555-3333XX3~----00-00-00-00-000077-77-77-77-7777-|

Verse 2-1:37
F#|---------------------------------------------------------------------------|
C#|---------------------------------------------------------------------------|
G#|---------------------------------------------------------------------------|
C#|-00-00-00-00-000000-00-00-00-000077-77-77-77-77~7\33-33-33-3-3-3-3---------|

F#|---------------------------------------------------------------------------|
C#|---------------------------------------------------------------------------|
G#|---------------------------------------------------------------------------|
C#|-00-00-00-00-000000-00-00-00-000077-77-77-77-77~7\33-33-33-33-3333---------|

F#|---------------------------------------------------------------------------|
C#|---------------------------------------------------------------------------|
G#|---------------------------------------------------------------------------|
C#|-00-00-00-00-000000-00-00-00-000077-77-77-77-77~7\33-33-33-33-3333---------|

Synth Riff-2:11
F#|---------------------------------------------------------------------------|
C#|---------------------------------------------------------------------------|
G#|-33333-33333-00000-00000---------------------------------------------------|
C#|-------------------------00-00-00-00-000000-00-00-00-0000------------------|

F#|---------------------------------------------------------------------------|
C#|---------------------------------------------------------------------------|
G#|-33333-33333-00000-00000---------------------------------------------------|
C#|-------------------------00-00-00-00-000055-55-55-55-5555-3~33333333333333-|

Bridge-2:34
F#|---------------------------------------------------------------------------|
C#|----8855-----8855--------8855--------8855--------8855----------------------|
G#|-5~-----775~-----77555333----77555333----77555333----775~~~----------------|
C#|---------------------------------------------------------------------------|

Breakdown-2:47
F#|---------------------------------------------------------|
C#|---------------------------------------------------------|
G#|---------------------------------------------------------|
C#|-00---333---00---333---00--000--33--333-00--000--33--333-|

Outro-3:08
F#|--------------------------------------------------|
C#|--------------------------------------------------|
G#|-----5p3---------5p3----------5p3----------5p3----|
C#|-0000---5p3--0000---5p3--3333----5p3--3333----5p3-|

F#|--------------------------------------------------|
C#|--------------------------------------------------|
G#|-----5p3---------5p3----------5p3----------5p3----|
C#|-0000---5p3--0000---5p3--3333----5p3--3333----5p3-|

F#|---------------|
C#|---------------|
G#|---------------|
C#|-0--0--0--0--0-|

That's all! Completely correct, but but feel free to post any corrections. Enjoy!

| /  slide up
| \  slide down
| h  hammer-on
| p  pull-off
| ~  hold note
| +  harmonic
| x  Mute note
===============================================================================
            
Submit corrections


        Walls lessons Hard to play? Try these video lessons and learn fast Walls lessons
        
↑ Back to top | Tablatures and chords for acoustic guitar and electric guitar, ukulele, drums are parodies/interpretations of the original songs. You may use it for private study, scholarship, research or language learning purposes only