Home » E » Emery »

Emery - The Party Song Bass

Artists:  A B C D E F G H I J K L M N O P Q R S T U V W X Y Z # 

The Party Song Bass

(ver. 2) Click to play this song!
Emery
 Rating:
4/5 (4 votes)
                EMERY
The Party Song

BAND : Emery
SONG : the party song
TUNNING: drop-C#

This is based off the most popular/music video version... I use some editing programs To 
the bass track , by cutting out the unwanted frequencies...have fun...  comment and rate

        0:08
   1234 1   2   3   4    1234
F#|----|----------------|----|
C#|----|----------------|----|
G#|----|00000000--------|----|
C#|----|--------77777777|----|
                ^^^^^^^
Bend back and forth for wah sound

   0:20
   1   2   3   4    1   2   3   4    1   2   3   4    1   2   3   4
F#|----------------|----------------|----------------|----------------|
C#|---------------2|4444444444444440|77777777~~7~~~7~|5555555555555555|
G#|222222222222222-|----------------|--------00000000|--------55555555|
C#|----------------|----------------|----------------|----------------|

VERSE-1
   0:31           0:39
   1234 1234 1234 1   2   3   4
F#|----|----|----|----------------|-------------------|
C#|4/--|----|----|----------------|-------------------|
G#|----|----|----|----------------|-------------------|
C#|----|----|----|4444444444444444|-------------------|
                PM.......... . . .
   1   2   3   4    1   2   3   4    1   2   3   4    1   2   3   4
F#|----------------|----------------|----------------|----------------|
C#|----------------|----------------|----------------|----------------|
G#|----------------|----------------|22222222--------|----------------|
C#|4444444444444444|0000000000000000|--------00000000|4474740444444444|


PRE-CHORUS                        Triplet
   0:53
   1   2   3   4    1   2   3   4    1   2    3    4     1   2   3   4
F#|----------------|----------------|-------------------|----------------|
C#|----------------|----------------|-------------------|----------------|
G#|---------------0|2222222222222220|540---------------0|2222222222222222|
C#|000000000000000-|----------------|---0~0000000000000-|----------------|
                                     ***

CHORUS-1
   1:04
   1   2   3   4    1   2   3   4    1   2   3   4   1   2   3   4
F#|----------------|----------------|--------------------------------|
C#|----------------|----------------|0-0-----0-0-----0-0----------222|
G#|----------------|---------9999987|------------------------0424----|
C#|4444444444444444|444444444-------|---00000---00000---00000--------|

   1:14
   1   2   3   4    1   2   3   4    1   2   3   4   1   2   3   4
F#|----------------|--------------21|---------------------------------------------|
C#|4~~~~~~~~~~~~~~~|---------44444--|0-0-----0-0-----0-0-------------|------------|
G#|----------------|----------------|------------------------0424~~~~|------------|
C#|4444444444444444|444444444-------|---00000---00000---00000--------|4-4444444//-|


VERSE-2
   1:28
   1234 1234 1234 1   2   3   4
F#|----|----|----|----------------|
C#|----|----|----|----------------|
G#|----|----|2~5`|----------------|
C#|4~~~|0~~~|----|4~~~~~~~~4-4-444|

   1   2   3   4    1   2   3   4    1   2   3   4    1   2   3   4
F#|----------------|----------------|----------------|----------------|
C#|----------------|----------------|----------------|-------------444|
G#|----------------|----------------|2--2------------|----------------|
C#|4--4------------|0--0------------|--------0--0----|4--44-4-4-4-4---|   1   PRE-CHORUS
   1:50
   1   2   3   4    1   2   3   4    1   2   3   4    1   2   3   4
F#|----------------|-4---4--4-------|----------------|----------------|
C#|--0~-0----0~-0--|----------------|--0~-0----0~-0--|----------------|
G#|----------------|2---2-22---045//|----------------|2-2-222--2-2-222|
C#|00--0-0-00--0-0-|----------------|00--0-0-00--0-0-|----------------|

CHORUS-2
   2:00
   1   2   3   4    1   2   3   4    1   2   3   4   1   2   3   4
F#|----------------|----------------|--------------------------------|
C#|----------------|----------------|0-0-----0-0-----0-0-------------|
G#|----------------|---------9999987|------------------------24242220|
C#|4444444444444444|444444444-------|---00000---00000---00000--------|

   2:11
   1   2   3   4    1   2   3   4    1   2   3   4   1   2   3   4
F#|----------------|--------------21|--------------------------------|
C#|----------------|---------44444--|0-0-----0-0-----0-0-------------|
G#|----------------|----------------|------------------------0424~~~~|
C#|4444444444444444|444444444-------|---00000---00000---00000-------4|


BRIDGE  play  super super quiet
   2:22
   1   2   3   4    1   2   3   4    1   2   3   4    1   2   3   4
F#|----------------|----7-----------|----6-----2--1--|----4-------1---|
C#|----9-----------|----------------|----------------|----------------|
G#|----------------|5---------------|0---------------|----------------|
C#|9-------------\7|----------------|----------------|2---------------|

   2:33
   1   2   3   4    1   2   3   4    1   2   3   4    1   2   3   4
F#|----------------|----------------|----------------|----------------|
C#|----------------|----------------|---------4---2--|---------4---2--|
G#|2-2-222222222200|5-5-555555555555|0-0-000---------|----------------|
C#|----------------|----------------|----------------|2-2-222---------|

   2:44
   1   2   3   4    1   2   3   4
F#|----------------|----------------|
C#|----------------|----------------|
G#|5555555555555555|5555555555555555|
C#|----------------|----------------|

Verse 3 tag
   2:48
F#|----|----|----|----|
C#|4---|0---|--0-|4---|
G#|----|----|2---|----|
C#|----|----|----|----|

PRE-CHORUS-loud!!!!!              Triplet
   2:59
   1   2   3   4    1   2   3   4    1   2    3    4     1   2   3   4    1   2   3   4
F#|----------------|----------------|-------------------|----------------|----------------|
C#|----------------|----------------|-------------------|----------------|----------------|
G#|---------------0|2222222222222220|540---------------0|2222222222222222|2222222222222402|
C#|000000000000000-|----------------|---0~0000000000000-|----------------|----------------|


FINAL CHORUS-explosion
   3:13
   1   2   3   4    1   2   3   4    1   2   3   4   1   2   3   4
F#|----------------|----------------|--------------------------------|
C#|----------------|----------------|0-0-----0-0-----0-0-------------|
G#|----------------|---------9999987|------------------------24242220|
C#|4444444444444444|444444444-------|---00000---00000---00000--------|

   1   2   3   4    1   2   3   4    1   2   3   4   1   2   3   4      bend up .5
F#|----------------|--------------21|--------------------------------|---------------|
C#|----------------|---------44444--|0-0-----0-0-----0-0-------------|---------------|
G#|----------------|----------------|------------------------0424~~~~|---------------|
C#|4444444444444444|444444444-------|---00000---00000---00000-------4|4-444444-444-4-|!
                                                                               bbb
            
Submit corrections

↑ Back to top | Tablatures and chords for acoustic guitar and electric guitar, ukulele, drums are parodies/interpretations of the original songs. You may use it for private study, scholarship, research or language learning purposes only