» » »

Emery - Fix Me Tabs

Artists:  A B C D E F G H I J K L M N O P Q R S T U V W X Y Z # 

Fix Me Tabs

(ver. 2) Click to play this song!
Emery
 Rating:
4/5 (4 votes)

 Fix Me lessons Tabs too difficult? Try these video lessons and learn fast
 
                Tuning: E Standard

VERSE chords
    Em    C     G    D/F    
e|--3-----3-----3-----3------------------------------------------------------|
B|--3-----3-----3-----3------------------------------------------------------|
G|--0-----0-----0-----2------------------------------------------------------|
D|--2-----2-----0-----0------------------------------------------------------|
A|--2-----3-----2-----0------------------------------------------------------|
E|--0-----0-----3-----2------------------------------------------------------|

CHORUS chords
    C     G    D/F    Em  
e|--3-----3-----3-----3------------------------------------------------------|
B|--3-----3-----3-----3------------------------------------------------------|
G|--0-----0-----2-----0------------------------------------------------------|
D|--2-----0-----0-----2------------------------------------------------------|
A|--3-----2-----0-----2------------------------------------------------------|
E|--0-----3-----2-----0------------------------------------------------------|

BRIDGE chords
    C     Am    F     Bb  
e|--3-----3-----1-----1------------------------------------------------------|
B|--3-----3-----1-----3------------------------------------------------------|
G|--0-----2-----2-----3------------------------------------------------------|
D|--2-----2-----3-----3------------------------------------------------------|
A|--3-----0-----3-----1------------------------------------------------------|
E|--0-----------1-----1==----------------------------------------------------|

SOLO after the first verse
e|------------------10-------------------------------------------------------|
B|------12----------------------12b13b12-------------------------------------|
G|--9-12--12-9--9-12--12-9----12--------12-------12-14b16b14-12-10-11--------|
D|--------------------------12--------------12-10----------------------------|
A|---------------------------------------------------------------------------|
E|---------------------------------------------------------------------------|

PICKING after FIRST CHORUS
e|---3-----------------------------------------------------------------------|
B|--3-3----------------------------------------------------------------------|
G|-----0---------------------------------------------------------------------|
D|---------------------------------------------------------------------------|
A|---------------------------------------------------------------------------|
E|---------------------------------------------------------------------------|

PICKING after SECOND CHORUS
e|----3----------------------------------------------------------------------|
B|---2----(X12)--------------------------------------------------------------|
G|--0------------------------------------------------------------------------|
D|---------------------------------------------------------------------------|
A|---------------------------------------------------------------------------|
E|---------------------------------------------------------------------------|

-------------------------------------------------------------------------------
                                    LYRICS
-------------------------------------------------------------------------------
[Verse 1]
We've all got something to say
When we open our mouths, we find someone to blame
We all have demons to face
Situations evolve into something that we can't explain

[Solo]

[Verse 2]
It's like a thorn in my mind
Digging deeper and deeper and killing the love that it finds
The heart's a complex machine
When it breaks it takes more 
Than the doctors and technology

[Chorus]
To fix me
Can you fix me?
I've been waiting so long to feel this heartbeat
Will we, ever really believe?
We're just caught in the thought that we deserve to be free

[Verse 3]
Love's not a gift to repay
With a handful of money or words we can say
There is no proper remark to be made that can change
or determine who we really are

[Chorus]
Fix me
Can you fix me?
I've been waiting so long to feel this heartbeat
Will we, ever really believe?
We're just caught in the thought that we are said to be free

[Bridge]
Screaming at the top of my lungs
Doesn't make me understand what you've done
How could I ever question you?
How could I ever doubt what you do?
Maybe this will tear me apart
But maybe I'll go back to the start
And honestly I can't believe that this is really happening

[Chorus]
Fix me
Jesus, fix me
I've been waiting so long to feel this heartbeat
Will we, ever really believe?
We're just caught in the thought that we deserve to be free

Fix me
Father, fix me
I've been waiting so long to feel this heartbeat
Will we ever really believe?
We're just caught in the thought that we deserve to be free            
Submit corrections


        Fix Me lessons Hard to play? Try these video lessons and learn fast Fix Me lessons
        
↑ Back to top | Tablatures and chords for acoustic guitar and electric guitar, ukulele, drums are parodies/interpretations of the original songs. You may use it for private study, scholarship, research or language learning purposes only