Home » E » Emery »

Emery - Don't Bore Us, Get To The Chorus Tabs

Artists:  A B C D E F G H I J K L M N O P Q R S T U V W X Y Z # 

Don't Bore Us, Get To The Chorus Tabs

(ver. 3) Click to play this song!
Emery
 Rating:
4/5 (4 votes)
                (Intro)
k this song is off their new album "im only a man"
its super good-this is pretty close to right



e|--6-------6-------6----------------6-------6-------6-----------|
B|-7----4--7----4--7----4--------4--7----4--7----4--7----4-------|
G|-----4-------4-------4--------4-------4-------4-------4--------|
D|----6-------6-------6------3-6-------6-------6-------6------3-3|
A|6-------6-------6-------1-4------6-------6-------6-------1-4--3|
D|---------------------------------------------------------------|

e|------------------------------------------------------|
B|------------------------------------------------------|
G|------------------------------------------------------|
D|1-111111111111-444444444444-8888888888888-777777777777|
A|1-111111111111-444444444444-8888888888888-777777777777|
D|1-111111111111-444444444444-8888888888888-777777777777|
    ^^^^^^^^^^^^ ^^^^^^^^^^^^ ^^^^^^^^^^^^^ ^^^^^^^^^^^^
        
^=palm mute

sorry i couldnt finish but my mom needed the computer..i guess ill finish some other time
            
Submit corrections

↑ Back to top | Tablatures and chords for acoustic guitar and electric guitar, ukulele, drums are parodies/interpretations of the original songs. You may use it for private study, scholarship, research or language learning purposes only