» » »

Emery - Dear Death Tabs

Artists:  A B C D E F G H I J K L M N O P Q R S T U V W X Y Z # 

Dear Death Tabs

(ver. 2) Click to play this song!
Emery
 Rating:
4.2/5 (5 votes)

 Dear Death lessons Tabs too difficult? Try these video lessons and learn fast
 
                (Part2)
----------------------------------------------------------------------------
                             Dear Death Part 2 - Emery
----------------------------------------------------------------------------


Tuning: Drop C#

To start with, this is like my favorite song, AND first tab, so dont hate, but help me
and correct me, I want feedback. Just leave comments for corrections or to insult me for
much of an idiot you think I am. I only did Lead for now, I'm gonna work on Rhythym
maybe help me out if you think you know it. For the most part I didnt put down the
but they're pretty self explanatory.

  Verse x2
e|---------------------------------------------------------------------------|
B|---------------------------------------------------------------------------|
G|---------------------------------------------------------------------------|
D|--0---9--------------------------------------------------------------------|
A|--0---9-x16----------------------------------------------------------------|
E|--0---9--------------------------------------------------------------------|

e|--------------------------------------------------------------------------|
B|--------------------------------------------------------------------------|
G|--------------------------------------------------------------------------|
D|--0---9--5--0--7--9--5--7-------------------------------------------------|
A|--0---9--5--0--7--9--5--7-------------------------------------------------|
E|--0---9--5--0--7--9--5--7-------------------------------------------------|

  Chorus x4
e|--------------------------------------------------------------------------|
B|--------------------------------------------------------------------------|
G|--------------------------------------------------------------------------|
D|--9--5--0-----------------------------------------------------------------|
A|--9--5--0-----------------------------------------------------------------|
E|--9--5--0-----------------------------------------------------------------|

   Post Chorus

e|--------------------------------------------------------------------------|
B|--------------------------------------------------------------------------|
G|--------------------------------------------------------------------------|
D|-99--99-99-9-9---9-99-99-9-9-9--------------------------------------------|
A|-99--99-99-9-9---9-99-99-9-9-9--------------------------------------------|
E|-99--99-99-9-9---9-99-99-9-9-9--------------------------------------------|

  Repeat Verse

  Repeat Chorus


  Bridge? Yeah, thats what we'll call it. ;]
e|--------------------------------------------------------------------------|
B|--------------------------------------------------------------------------|
G|--------------------------------------------------------------------------|
D|-9-9-9-9-9-9-9------------------------------------------------------------|
A|-9-9-9-9-9-9-9------------------------------------------------------------|
E|-9-9-9-9-9-9-9------------------------------------------------------------|
   Repeat as needed,
e|--------------------------------------------------------------------------|
B|--------------------------------------------------------------------------|
G|--------------------------------------------------------------------------|
D|-99-99-99-9-9--------------------------------9-7-9-7-5-7------------------|
A|-99-99-99-9-9--------------------------------9-7-9-7-5-7------------------|
E|-99-99-99-9-9--------------------------------9-7-9-7-5-7------------------|     ^      
                                ^
      ^                                       ^
  Use THIS pattern with all THESE chords......^ In that order twice.


e|--------------------------------------------------------------------------|
B|--------------------------------------------------------------------------|
G|--------------------------------------------------------------------------|
D|--9--7--5--0-7------------------------------------------------------------|
A|--9--7--5--0-7------------------------------------------------------------|
E|--9--7--5--0-7------------------------------------------------------------|

e|--------------------------------------------------------------------------|
B|--------------------------------------------------------------------------|
G|--------------------------------------------------------------------------|
D|-9--5--0------End On --7~-------------------------------------------------|
A|-9--5--0---------------7~-------------------------------------------------|
E|-9--5--0---------------7~-------------------------------------------------|


| /  slide up
| \  slide down
| h  hammer-on
| p  pull-off
| ~  vibrato
| +  harmonic
| x  Mute note
============================================================================
            
Submit corrections


        Dear Death lessons Hard to play? Try these video lessons and learn fast Dear Death lessons
        
↑ Back to top | Tablatures and chords for acoustic guitar and electric guitar, ukulele, drums are parodies/interpretations of the original songs. You may use it for private study, scholarship, research or language learning purposes only