Home » E » Emery »

Emery - By All Accountstoday Was A Disaster Tabs

Artists:  A B C D E F G H I J K L M N O P Q R S T U V W X Y Z # 

By All Accountstoday Was A Disaster Tabs

(ver. 2) Click to play this song!
Emery
 Rating:
4/5 (4 votes)
                This is my first tab.. I love Emery and after listening to this one I decided to figure
out and, well, here it is. I'm pretty sure this is thorough and correct. This is the
guitar part, but it covers all the guitar that is heard on the recording minus a few 
with a bit of background comping. It's pretty simple.

Standard
Intro (Just Guitar)

E|-----------------------------|
B|-----------------------------|
G|-----4-4/5/4-4---4-4/5/4-4---|
D|----5-5-----5-5-5-5-----5----|X2}
A|---0-----------0-------------|
E|-----------------------------|

(Add Bass and keyboard fills)

E|--3--3--3--3---|
B|-1--1--1--1----|
G|2--2--2--2-----|
D|---------------|X4}
A|---------------|
E|---------------|
(These are played like triplets)

"Wasted, Paralyzed"
E|-----------------------------------------|
B|-----------------------------------------|
G|5-5--4-4-------0-0--0-0--0-0--0-0--0-0---|
D|5-5--5-5--5-5--3-3--3-3--3-3--3-3--3-3---|repeat until "only your heart.."}
A|0-0--0-0--5-5--3-3--3-3--3-3--3-3--3-3---|
E|-----------------------------------------|

"For one last cry" (1st)
E|--------------------|
B|--------------------|
G|0-------------5-4-0-|
D|3-{let ring}--5-5-0-|
A|3-------------------|
E|--------------------|
               (guitar solo, bend last chord with slight whamming bar effect)
"One last cry" (2nd)
E|--3--3--3--3---|
B|-1--1--1--1----|
G|2--2--2--2-----|
D|---------------|X2}
A|---------------|
E|---------------|

"How long"
E|------------|
B|------------|
G|5/4-4-4-4/5-|
D|5/5-5-5-5---|5 (Repeat until "To die" and then immediately follow with;)
A|0/0-0-0-0/0-|
E|------------|

E|--3--3--3--3---|
B|-1--1--1--1----|
G|2--2--2--2-----|
D|---------------|X2}
A|---------------|
E|---------------|

"These broken animals" (1st)
E|--3--3--3--3---|
B|-1--1--1--1----|
G|2--2--2--2-----|
D|---------------|X4}
A|---------------|
E|---------------|
(just a continuation of the previous pattern, play for first two times of "These broken
useless as they are" then;)

"These broken animals" (2nd)
E|---------------------------------------|
B|---------------------------------------|
G|5-5--4-4-------0-0--0-0--0-0--0-0--0-0-|
D|5-5--5-5--5-5--3-3--3-3--3-3--3-3--3-3-|
A|0-0--0-0--5-5--3-3--3-3--3-3--3-3--3-3-|
E|---------------------------------------|
(Its the same pattern from the first entrance of lyrics)

same solo
E|-----
B|-----
G|5-4-0
D|5-5-0
A|-----
E|-----

"Gravity gets to me"
E|--------3--3-|
B|-------1--1--|
G|--4---2--2---|
D|-5-5---------|
A|0------------|
E|-------------|
(something like this..)

There is a guitar/vocal break for a solo drum section briefly after "Make it home" (1st) then;

solo guitar
E|------------|
B|------------|
G|5/4-4-4-4/5-|
D|5/5-5-5-5---|5 (Repeat and add vocals "Make it home, this time.." continuing
A|0/0-0-0-0---|0  pattern)

You can end on the last chord here and let ring or repeat the solo guitar line;
E|-----
B|-----
G|5-4-0
D|5-5-0
A|-----
E|-----

/ Slur
            
Submit corrections

↑ Back to top | Tablatures and chords for acoustic guitar and electric guitar, ukulele, drums are parodies/interpretations of the original songs. You may use it for private study, scholarship, research or language learning purposes only